Acordes de Guitarra » B »Bulldog » Mi Lugar (Tab)

Mi Lugar
Bulldog

Letras, Acordes y Tabs para Guitarra, Bajo y Ukulele

  • Intro:   E  -   B  -   A      E - A
    
     E                 B
     No me esforce demasiado
                   A                        E - B
    De nada fuí esclavo. De nadie fuí canción
     E                   B                           A
    Las paredes sólo encierran, no es bueno guardar penas
                       E - B
    Vivir ciencia ficción
     FA#                 A                     E            B
    Con el paso de los días, fui armando mi vida con intuición
     E                 B                   A                      E - B
    Convencido que lo mio era siempre decisivo, siempre era lo mejor
     E                    B                          A                    E - B
    Fuí chocando contra el mundo, y me fuí poniendo duro a causa de fricción
     F#                    A                E              B
    Cada  paso en esta historia enárbola memorias del corazón
    
    ESTRIBILLO
    
  •     DO# - MI - LA - MI
    1-------------------------------------------------------------------------
    2--5--------------------------------------------------------------------5-
    3-------------------------------------------------------------------------
    4---------2-2-6-9----11-9-7-6-7----9-7-6-4-6----7-6-4----2-1-4-2---2------
    5-------------------------------------------------------------------------
    6-------------------------------------------------------------------------
    
    
    (*)
    1------------------------------------------------------------------------
    2-------9----10-9-7------------------------------------------------------
    3---------------------9-8-9----------------------------------------------
    4------------------------------------------------------------------------
    5------------------------------------------------------------------------
    6------------------------------------------------------------------------
    
    
    
     DO#               MI
    
  • +
    ¡Colabora con nosotros!
    Envíanos tu versión de esta canción

Letra de Mi Lugar
No me esforce demasiado
De nada fuí esclavo. De nadie fuí canción
Las paredes sólo encierran, no es bueno guardar penas
Vivir ciencia ficción
Con el paso de los días, fui armando mi vida con intuición
Convencido que lo mio era siempre decisivo, siempre era lo mejor
Fuí chocando contra el mundo, y me fuí poniendo duro a causa de fricción
Cada paso en esta historia enárbola memorias del corazón
ESTRIBILLO
Este es mi lugar, siento que este tan mal
Y morir en el intento no esta nada mal, quiero cambiar y volver a empezar.
A través de estos años que sume alegrías y daños
Voy de frente sin temor
Hago todo con más calma, digo lo que tenga ganas y canto esta canción
Fuí creciendo y sosteniendo que a veces el destino no esta con vos
Corriendo bajo este cielo decidí batirme en duelo con el luto y el dolor
Elegí patear la puerta, romper ciertas barreras vivirla a mi manera
Y aquí me tienen bien fuerte y aunque no tuve mucha suerte
Aún estoy aquí
Suerte de estar aquí .Fuerte me hace vivir
Y morir en el intento no esta nada mal, quiero cambiar
Y volver a empezar
Vivan la vida ya. No se dejen estar
Porque los años se pasan y no vuelven más
Mejor soñar que nunca se acabará.
SOY NICO DESDE SALTA FANATICO DE LOS BULLDOGS...
ESPERO Q ESTE BIEN ESTE TEMAZO!!!
ESTA ES MI PRIMERA CANCION...




[Mi Lugar chords][Mi Lugar cifra]
© LaCuerda.net · aviso legal · privacidad · es · en · pt · contacto
DINAMICO