Acordes de Guitarra » B »Bulldog » Inmortalizar mi canto (Tab)

Inmortalizar mi canto
Bulldog

  • Tablatura
        A          A                F#-E  A          A               F#-E
    e---------------------------------------------------------------------
    B---------------------------------------------------------------------
    G---6>7-6-----6>7-6----6>7-6----------6>7-6-----6>7-6----6>7-6--------
    D---------7---------7--------7--------------7---------7--------7------
    A-----------7--------7---------7--9-----------7--------7---------7--9-
    E---------------------------------------------------------------------
    
       B    D       E     F#  B    D        E   F# E
    e----------------------------------------------7-5-4---7-5-4---7-5-4----
    B----------------------------------------------------5-------5------5-7-
    G-------6-7-6-7-9-7-6-11-------6-7-6-7-9-7-6-6--------------------------
    D--9--9-------------------9--9------------------------------------------
    A-----------------------------------------------------------------------
    E-----------------------------------------------------------------------
    
    
    Inmortalizar mi canto Dando el mensaje con pasión
                LA                                     FA# MI
    Acaso se haga obsesión Que entiendan esta canción
    
  • +
    ¡Colabora con nosotros!
    Envíanos tu versión de esta canción

Letra de Inmortalizar mi canto
Inmortalizar mi canto Dando el mensaje con pasión
Acaso se haga obsesión Que entiendan esta canción
No invadan los oídos del pueblo
Con una mierda de ficción
Negando verdades ocultas
A jóvenes del Reggaeton
Mantenerse humilde
Te hace más grande el corazón
Y alejarse de los miedos
Que nublan la buena visión
Vivir con coraje siempre
Llevando así la misma misión
Que a veces puede ser tan simple
Como acercar una canción
A los niños solos.
Voy caminando el campo bajo el sol
Sintiendo todo ese calor
Dejando salir afuera lo malo interior
Ves? ya nada me puede estimular
Naufragué mil veces en este mar
Soy inmune a la vida
Soy inmune a la muerte ya.
De niño quise ser indio
Y no cowboy conquistador
Siempre fui más par del gaucho
Que del comisario matón
Y nos fuimos armando el rancho
Sin ninguna ayuda exterior
Hace ya casi veinte años
Y hoy nos sentimos mejor
Dando una nueva canción.
Voy caminando el campo bajo el sol
Sintiendo todo ese calor
Dejando salir afuera lo malo interior
Ves ya nada me puede estimular
Naufragué mil veces en este mar
Soy inmune a la vida
Soy inmune a la muerte ya.



© LaCuerda.net · aviso legal · privacidad · contacto