Acordes de Guitarra » B »Bulldog » Gente (Tab)

Gente
Bulldog

  • Tablatura
    e|-------------------------10-|
    B|-10p9h10p9h10p9h10p9h10b----|
    G|----------------------------|
    D|----------------------------|
    A|----------------------------|
    E|----------------------------|
                                  X2
    
    e|-10-10-9b10-7---------------|
    B|----------------------------|
    G|----------------------------|
    D|----------------------------|
    A|----------------------------|
    E|----------------------------|
    
    
    
    e|-12-12--15--12--------------|
    B|-----------------15-12--15--|
    G|----------------------------|
    
  • +
    ¡Colabora con nosotros!
    Envíanos tu versión de esta canción

Letra de Gente
X2
Empieza con el bajo haciendo esto:
Gente de la buena
Gente de la misma
Gente que se mueve
Fuera de la oficina
Gente que Planea
Gente que asecina
Gente que se muere
Y no es policia
Gente que va defende a la vida
Gente que se esconde tras la hipocrecia
Gente que camina y no muestra sus estrias
Gente que es robada y no sangra en sus heridas
VOy a mover los hilos hoy
Voy a seguir despierto
Voy a empezar a patear culos hoy
VOy a mover los hilos hoy
Voy a seguir despierto
Voy a empezar a patear culos hoy
Aca hace un pedazo de la intro y despues
se manda cualquiera.....
Gente que escucha
Consejos de mentira
Gente que se acuerda
Cuando era Argentina
Hay gente que lloro
El robo de Malvinas
Hay Muchos que tendrian
Que respirar sus vidas
Hay otros que estan anclados en algun puerto
Cuando realmente tendrian que estar muertos
Gente que esta vieja por no tener un sueldo
Y eso es por que siempre comen los mismos cerdos
Pero todo esto tendra un final
Cuando el pueblo unido se inmole en la capital
Y crucifiquen a todos, hasta al presidente
Y este pais vueva a ser de su gente
VOy a mover los hilos hoy
Voy a seguir despierto
Voy a empezar a patear culos hoy
X4
VOy a mover los hilos hoy
Voy a seguir despierto
Voy a empezar a patear culos hoy
Sigue igual haciendo lalalalalalalala re verano del 98
y tiene un outro que no lo saque.
Aguante BULLDOG CARAJO!!!!!
jejeje re que siempre decia lo mismo.
Esta tab se la dedico a el loko este Martin que me la pido!!
13/09/03 10:40 p.m



© LaCuerda.net · aviso legal · privacidad · contacto
DINAMICO