Acordes de Guitarra » B »Bulldog » El grito silencioso (Tab)

El grito silencioso
Bulldog

Letras, Notas, Punteos, Tablaturas y Acordes de Guitarra (Tabs & Chords)

  • Letra y Acordes
    D - B - D - B
    
    Entra Willy (Mantu G A F#m B G A)
    e|-------------------------------------|
    B|-------------------------------------|
    G|-------------------------------------|
    D|-0-4p5p4p5p4-2-0-2-2-2-4-7-4-5-4-2-5-|
    A|-------------------------------------|
    E|-------------------------------------|
    
    e|------------------------------------|
    B|------------------------------------|
    G|------------------------------------|
    D|------------------------------------|
    A|-55-7-9-10-12-14-16-17-16-17-16-17v-|
    E|------------------------------------|
    
    
    D                                      B
    Anduve, anduve siempre sin ver a mis costados
    
  • Tablatura
           G            A          F#              B
    e|-----------------------------------------------|
    B|-----------------------------------------------|
    G|-----------------------------------------------|
    D|-2-4-5-4--5-4-2-----------4-5-7-5-7-4--5-4-----|
    A|----------------5-/7-7-7-------------------7-5-|
    E|-----------------------------------------------|
    
       G                               A                               D
    e|-------------------------------------------------------------------|
    B|-------------------------------------------------------------------|
    G|-----------------------------------------4-4-4-4-6-6-6-6-7-6-7-6-7-| X2
    D|-----------------4-4-4-4-5-5-5-5-7-7-7-7---------------------------|
    A|-5-5-5-5-7-7-7-7---------------------------------------------------|
    E|-------------------------------------------------------------------|
    
    
    solo:
       D                                   B
    e|----------------------------------------------------|
    
  • +
    ¡Colabora con nosotros!
    Envíanos tu versión de esta canción

Letra de El grito silencioso
Entra Willy (Mantu G A F#m B G A)
Anduve, anduve siempre sin ver a mis costados
corri, corri sin pausa y hoy me siento cansado
y al llegar a la puerta del lugar anhelado
un rostro indiferente acudió a mi llamado.
Soñaba un lugar tibio para estar a tu lado
qué sombras, que silencios en tu pecho anidaron?
en que rincón obscuro tu cariño ha quedado
me quedan pocas fuerzas y aún no he comenzado.
Est.
¯¯¯¯
Cual será ese camino que me lleve a algún lado
que cayará mi boca, que vacía mis manos
y ese grito en silencio de impotencia cargado.
Repite todo, dos veces el Est.
_____________________________
|Aguante newells y bulldog!!! |
¯¯¯¯¯¯¯¯¯¯¯¯¯¯¯¯¯¯¯¯¯¯¯¯¯¯¯¯¯



© LaCuerda.net · Aviso Legal · Privacidad