Acordes de Guitarra » B »Buitres » Setiembre (Tab)

Setiembre
Buitres

Letras, Acordes y Tabs para Guitarra, Bajo y Ukulele

  •     Dm   Am     C       G
    e----------------------------------
    b----------------------------------
    g----------------------------------  X2   
    d-5-3--0-2-0-----2-3-2-------------            
    a-------------3--------3-----------            
    E----------------------------------
    Intro
    
     Dm    Am                  C     G
    Este dolor se arrastra en mi
    como una segunda piel
    busco el silencio que nunca 
    olvido tu nombre 
    en las plegarias de mi sangre infiel
    
    Intro
    
    Siento la fiebre de tu luz
    tan lejos como un nunca mas
    
  •     Dm   Am     D       G
    e----------------------------------
    b----------------------------------
    g---------------------------------- dos veces    Esto va en piano   
    d-5-3--0-2-0-----2-3-2-------------            mientras que los acordes
    a-------------3--------3-----------              en organo (sonido)
    E----------------------------------
    
    Mientras se esta cantando el verso
    
    (Siempre tocando los acordes de la Intro)
    Parte1
    e-----------------------
    b-----------3-----------
    g------2----------------
    d---5-------------------
    a-----------------------
    E-----------------------
    
    
    
  • Intro:
    g---------------------------------------
    d-17-15--12--14-12-----13-14-13----13---   Dos veces
    a------------------14-----------14----13
    E---------------------------------------
    
    Luego entra el teclado y se vuelve a repetir 2 veces.
    
    
    Para el verso:   
    g-------------------
    d-------------------
    a-5--3--------------
    E-------5--3--------
    
    Este dolor se arrastra en mi
    como una segunda piel
    busco el silencio que nunca olvido tu nombre
    en las plegarias de mi sangre infiel
    
    Intro
     
    Siento la fiebre de tu luz      ( Con la parte del verso siempre)
    tan lejos como un nunca mas
    parece un sueño de aire muerte azul
    tu pelo al viento es la bandera de mi oscuridad
    que me envolvía frente al mar
    recordaras aun el mar 
    
    Intro
    
    cuando respires otra vez        ( Con la parte del verso)  
    me borrara tu claridad
    recordaras la sangre sin nombrar
    setiembre me traerá siempre
    el perfume de tu piel
    
    Acá cambia:
    g-------------------
    d---0--2------------
    a----------
  • +
    ¡Colabora con nosotros!
    Envíanos tu versión de esta canción

Letra de Setiembre
Este dolor se arrastra en mi
como una segunda piel
busco el silencio que nunca
olvido tu nombre
en las plegarias de mi sangre infiel
Siento la fiebre de tu luz
tan lejos como un nunca mas
parece un sueño de aire muerte azul
tu pelo al viento es la bandera de mi oscuridad
que me envolvía frente al mar
recordaras aun el mar
cuando respires otra vez
me borrara tu claridad
recordaras la sangre sin nombrar
setiembre me traerá siempre
el perfume de tu piel
para envolverme frente al mar
recordaras aun el mar
para envolverme frente al mar
recordaras aun el mar




[Setiembre chords][Setiembre cifra]
© LaCuerda.net · aviso legal · privacidad · es · en · pt · contacto