Acordes de Guitarra » B »Buitres » A cartas vistas (Tab)

A cartas vistas
Buitres

Letras, Acordes y Tabs para Guitarra, Bajo y Ukulele

  • G        D                Em
    Es la historia del regreso
             D                C
    Con los pasos de tus versos
           D               F#5/G5
    Esta es nuestra canción
    
    Te vi jugar a cartas vistas
    Cuando se pierde así en la vida
    se pierde no se habla mas
    
    (Acordes de la parte 1 con el solo del bajo)
    
    
    G        D                Em
    La noche ya no es mi guarida
            D                C
    el vidrio solo abre heridas
           D               F#5/G5
    tus ojos diez años atrás
    
  • G|--5-5-4-4-5-5-4-4-7-7-4-4-5-5-4-4-
    D|--5-5-5-5-5-5-5-5-5-5-5-5-5-5-5-5- REPITE (x3)
    PM: . . . . . . . . . . . . . . . .
    
    G|--5-5-4-4-5-5-4-4----7----
    D|--5-5-5-5-5-5-5-5----5----
    PM: . . . . . . . .
    
    Marca las últimas notas dejándolas sonar y repite 4 veces en lugar de
     3 sin palm mute.
    
    La parte 1 arranca jugando con los primeros 4 acordes así:
    G|---------------12---
    D|-----12------------- (G’)
    A|--10-----10-10---10-
    
    Parte 1:
    G’        D                E’
    Es la historia del regreso
             D                C
    
  • Intro Parte 1
    G-12-12-12-12-12-12-12-12-11-11-11-11-11-11-11-11-9-9-9-9-9-9-9-9-|
    D-----------------------------------------------------------------|
    A-----------------------------------------------------------------|
    E-----------------------------------------------------------------|
    
    G-------------------------------------------------|
    D-12-12-12-12-12-12-12-12-10-10-10-10-10-10-10-10-|
    A-------------------------------------------------|
    E-------------------------------------------------|
    
    G-------------------------12-12-12-12-12-12-12-12-|
    D-12-12-12-12-12-12-12-12-------------------------|
    A-------------------------------------------------|
    E-------------------------------------------------|
    
    Intro Parte 2
    G-----------------------------------------------------------------|
    D-----------------------------------------------------------------|
    A-10-10-10-10-10-10-10-10-9-9-9-9-9-9-9-9-7-7-7-7-7-7-7-7---------|
    E-----------------------------------------------------------------|
    
    G-------
  • +
    ¡Colabora con nosotros!
    Envíanos tu versión de esta canción

Letra de A cartas vistas
Es la historia del regreso
Con los pasos de tus versos
Esta es nuestra canción
Te vi jugar a cartas vistas
Cuando se pierde así en la vida
se pierde no se habla mas
(Acordes de la parte 1 con el solo del bajo)
La noche ya no es mi guarida
el vidrio solo abre heridas
tus ojos diez años atrás
Parte 2:
A veces siento rogando en mi caída
tu voz que llama desde el bar
y no es verdad es que recordé
Estribillo:
Una canción herida al viento
Un solo corazón latiendo
Y aun peor...lo que es vivir la vida sin ti
Parte 1:
No me importa lo que digan
Yo pagué por esta vida
Y no quiero devolución
De otro si sera de otro
Como fundida en mis besos
Y eso no se quita más
Parte 2:
Dejame hablarme también a tu silencio
lo que si fue que me perdí
y me perdí como recordé
Estribillo
Estribillo




[A cartas vistas chords][A cartas vistas cifra]
© LaCuerda.net · aviso legal · privacidad · es · en · pt · contacto
DINAMICO