Acordes de Guitarra » B »Buitres » Rambla Sur (Tab)

Rambla Sur
Buitres

Letras, Notas, Punteos, Tablaturas y Acordes de Guitarra (Tabs & Chords)

  • Letra y Acordes
    INTRO: A E A F C E A F   X2
     
     RIFF 1
     A         F  
     Otra vez salgo a buscar
     C                  G
    camino solo hasta aquel lugar
    entero sin, sin dios ni fe
    a mi refugio mi propia ley.
    
    RIFF 1
    En su moral brilla 
    MI espada atravesandoce
    el animal mueve su cuerpo
    y vuelve a arremeter. 
    
    ESTRIVILLO:
     C       G       F
    Niebla sobre rambla sur
     A        G        F          G 
    
  • Tablatura
    Este es un temón que la mayoría de la gente le da poca bola...
    
    |--------------------------------------------
    |--------------------------------------------
    |-----9999-----10101010--------999-----------
    |-777-9999-777-10101010-101010-999-777-1010--
    |-777-7777-777-8 8 8 8--101010-777-777-8 8---
    |-555------555----------8 8 8------555-------
    
    
    |-----------------------------------------------------
    |-----------------------------------------------------
    |----------10-----------------------------------------
    |-7--------10--------------10---------------12--------
    |-7--------8 --------------10---------------12--------
    |-5------------------------8----------------10--------
    Otra vez salgo a buscar, camino solo hasta aquel lugar..
    
    
    |--------------------------------------
    |--------------------------------------
    |-999999-777777------------------------
    |-999999-777777------------------------
    |-777777-555555-1010101010101010101010-
    |---------------8 8 8 8 8 8 8 8 8 8 8--
    Ni
  • +
    ¡Colabora con nosotros!
    Envíanos tu versión de esta canción

Letra de Rambla Sur
RIFF 1
Otra vez salgo a buscar
camino solo hasta aquel lugar
entero sin, sin dios ni fe
a mi refugio mi propia ley.
RIFF 1
En su moral brilla
el animal mueve su cuerpo
y vuelve a arremeter.
ESTRIVILLO:
Niebla sobre rambla sur
pasos perdidos mordiendo el dolor
niebla sobre rambla sur
mar encendido cubriendo mi amor.
RIFF 1
Antes moria con la traicion
y hacerte parte juego
igual su marca voy a seguir
por lejano hasta morir.
RIFF 1
Insignia enterrada
aun no me pueden matar
no hablo de penas de otros
ni mando a nadie a contestar.
ESTRIVILLO:
Cuando la noche azul
la luna se desangra
que cuides bien mi alma
y no te olvides que
esta es la semilla de
las voces que murieron por amor.
ESTRIVILLO:



© LaCuerda.net · Aviso Legal · Privacidad
DINAMICO