Acordes de Guitarra » B »Bronco » Que te han visto llorar (Tab)

Que te han visto llorar
Bronco

Letras, Acordes y Tabs para Guitarra, Bajo y Ukulele

  •             Am                               Dm
    Que te han visto llorar, me han llegado rumores
               G7                                C
    Que frecuentas los sitios donde hablamos de amores,
              E                                   Am
    Que pareces nerviosa, que te duele la risa,
               E                                  Am
    y si alguien me nombra, te despides de prisa
    
    (Los mismos acordes)
    
    Que te han visto llorar, cuando juras no amarme,
    que te inventas amores, por tratar de olvidarme,
    que te noche no duerme, y si duermes me sueñas
                    E                                      A
    que te faltan mis besos y te ahoga la pena
    
    Coro.
                A                                 E
    Yo quisiera decirte que me pasa lo mismo,
    
  • Am  E  Am
    
                      Am                      Dm
    Que te han visto llorar, me han llegado rumores
                        G                        C
    Que frecuentas los sitios donde hablamos de amores
                    E                      Am
    Que pareces nerviosa, que te duele la risa
                     E                     Am
    Y si alguien me nombra, te despides de prisa
                       Am                      Dm
    Que te han visto llorar, cuando juras no amarme
                      G                       Dm
    Que te inventas amores, por tratar de olvidarme
                     E                       Am
    Que te noche no duerme, y si duermes me sueñas
                       E                   A     A/
    Que te faltan mis besos y te ahoga la pena
                   A                    E
    Yo quisiera decirte que me pasa lo mismo
    
  •                    Am
    Que te han visto llorar
                      Dm
    Me han llegado rumores
                        G7   G
    Que frecuentas los sitios
                        C
    Donde hablamos de amores
                    E
    Que pareces nerviosa
                     Am
    Que te duele la risa
                     E
    Y si alguien me nombra
                    Am
    Te despides de prisa
    
    *Mismos acordes
    
    Que te han visto llorar
    
  • afinacion: (G,D,A,E)
    
    recuerden ke es una cansion lenta
    y como se ke aveces es dificil iwalar a como este por los tiempos
    escuchen bien la rola y sale ;D
    
    Intro  (0:08)
    G]--------------------------------------------------|
    D]-------------66~-------------------------------6~-|
    A]-----------6------3-5------66~---------------6----|
    E]-----4~--4-----------6~-5------6-4~--44~---4------|
    
    verso1  (0:24)
    G]----------------------------------------------------|
    D]-------------------------------------------------99-|
    A]---------66--6---4~----44---4----------------6-8----|
    E]-4~--4-6-------7-----7--------7-6~--66~-6-7---------|
    
    G]---------------------------------------------------|
    D]-9------------------6~--66----------------6~---66--|
    A]---5-3-6~--3-66---6----6----3-6~--3-66--6-----6----|
    A]---------------------------------------------------|
    
    
    
    Verso2 (0:55)
    G]-----------------------------------------------------------------|
    D]-6-----------------------------------------------7-9/11/9--------|
  • Intro
    E|--5-|------|-------|-7----|-----|---------|
    A|----|-7----|-5-6-7-|--7-7-|-----|-77------|
    D|----|--7-7-|-------|------|-9-7-|----6-7--|
    G|----|------|-------|------|-----|---------|
    
    Que te han visto llorar
    E|--5-|----5-|---|-5-----|---------|-------|
    A|----|-7----|-5-|---5---|---5--53-|-------|
    D|----|--7---|---|-----5-|-5---5---|-5-----|
    G|----|------|---|-------|---------|--5-5--|
    
    Que parece nerviosa
    E|--------|------|-------|---------|---7-----|-----|--------|
    A|----5-7-|------|-7-----|---7---7-|-7---7---|---7-|--------|
    D|--5-----|-9----|---9-7-|-7---7---|-------7-|-7---|-4-6-7--|
    G|--------|--9-9-|-------|---------|---------|-----|--------|
    
    Que te han visto llorar
    E|------|-------|-----|-------|---------|-------|
    A|----7-|---7-5-|-----|-5-----|---5---3-|-------|
    D|--7---|-7-----|-7---|---7-5-|-5---5---|-5-----|
    G|------|-------|---7-|-------|---------|--5-5--|
    
    Que de noche no duermes
    E|--------|------|-------|--------|---|-----|--------|-------|--------|
    A|----5-7-|---
  • +
    ¡Colabora con nosotros!
    Envíanos tu versión de esta canción

Letra de Que te han visto llorar
Que te han visto llorar, me han llegado rumores
Que frecuentas los sitios donde hablamos de amores,
Que pareces nerviosa, que te duele la risa,
y si alguien me nombra, te despides de prisa
(Los mismos acordes)
Que te han visto llorar, cuando juras no amarme,
que te inventas amores, por tratar de olvidarme,
que te noche no duerme, y si duermes me sueñas
que te faltan mis besos y te ahoga la pena
Yo quisiera decirte que me pasa lo mismo,
pues nos sobra cariño y nos sobra egoismo,
yo quisiera decirte, que ya no puedo maaasss
que daria cuanto fuera, que daria cuanto fueraaa,
por volverte a encontrar *
Que te han visto llorar cuando juras no amarme....se repite.
Y se repite coro 2 veces.




[Que te han visto llorar chords][Que te han visto llorar cifra]
© LaCuerda.net · aviso legal · privacidad · es · en · pt · contacto