Acordes de Guitarra » B »Bronco » Libros Tontos (Tab)

Libros Tontos
Bronco

Letras, Notas, Punteos, Tablaturas y Acordes de Guitarra (Tabs & Chords)

  • Letra y Acordes
               LA
    Madrugada es
    
    intento estudiar
    
    por que mañana presento
                  MI
    mi examen final
    RE
    no puedo concentrarme
                     LA
    no se me queda nada
                      MI
    solo tu imagen hermosa
             RE  MI     LA
    mi pensamiento acapara
    
    
            RE
    libros tontos
    
  • Tablatura
       A
    ---9------------9--------------9--------------
    --10-----10-----10-----10-----10------10------
    ----------9------------9---------------9------
    ----------------------------------------------
    ----------------------------------------------
    ----------------------------------------------
    
    E
    ------------9--------9------------------------
    -----10-----10------10------10-----10---------
    -----9-----------------------9------9---------
    ----------------------------------------------
    ----------------------------------------------
    ----------------------------------------------
    
    
    ---7-----------7---------7--------------------
    ---9-----9-----9-----9---9------9-------------
    ---------9-----------9----------9-------------
    
  • Tab p/Bajo
    Ahi les va
    pa los que no pueden estudiar bien
    pensando en alguien especial
    creo
    
    Intro
    E|----|----|----|-------|---|--55-|-5---|
    A|----|--5-|-5--|-5-323-|-5-|-5---|--5--|
    D|--5-|-5--|--5-|--5----|---|-----|-----|
    G|----|----|----|-------|---|-----|-----|
    
    E|---5-|----------|------|-----|--5-|-5---|---------|
    A|--5--|-55-7-----|----5-|---5-|-5--|--34-|-555555--|
    D|-----|----------|-5-5--|-5---|----|-----|---------|
    G|-----|-----7h99-|------|-----|----|-----|---------|
    
    E|----|----|----|-------|---|--55-|-5--|
    A|----|--5-|-5--|-5-323-|-5-|-5---|--5-|
    D|--5-|-5--|--5-|--5----|---|-----|----|
    G|----|----|----|-------|---|-----|----|
    
    E|---5-|----------|------|-----|--------------|
    A|--5--|-55-7-----|----5-|-3-5-|-------9-7-5--|
    D|-----|----------|-5-5--|-----|-7h9-7--------|
    G|-----|-----7h99-|------|-----|--------------|
    
    Madrugada es
                      x3
    E|-----555-5--|--5-5--|--5---------|
    A|--5-5-----5-|-5---5-|-5-567------|
    D|------------|-------|------------|
    G|------------|-------|-
  • Piano (Teclados)
    Espero les sirva, es mi primer aporte aqui, saludos
    Puro BRONCO
    
    Tono original: Re
    
    Intro
    String
    
    Mano izq. alternando dedos                     Mano derecha alternado dedos
    
    sol mi (3)                                         si sol (3)
    
    mi sol sol mi                                      sol si si sol
    
    fa# re (3)                                         la fa# (3)
    
    do# si la                                          mi re do#
    
    sol fa# sol                                        si la si
    
    fa# mi sol fa#                                     la sol si la
    
    Acorde Re completo 5 veces
    
    Mano izq. alternando dedos                     Mano derecha alternado dedos
    
    sol mi (3)                                         si sol (3)
    
    mi sol sol mi                                      sol si si sol
    
    fa# re (3)                                         la fa# (3)
    
    do# si la                                          mi re do#
    
    sol fa# sol                                        si la si
    
    la do# re                
  • +
    ¡Colabora con nosotros!
    Envíanos tu versión de esta canción

Letra de Libros Tontos
Madrugada es
intento estudiar
por que mañana presento
mi examen final
no puedo concentrarme
no se me queda nada
mi pensamiento acapara
libros tontos
como quieren que sus letras
entren en mi mente
si mi mente esta cansada
de tento quererte
de quererte de quererte
Libros tontos
como quieren que sus letras
entren en mimente
si se muy bien que por su culpa
perdere el semestre
pero la quiero
la quiero
perdonenme
Es de dia y yo
no logre estudiar
se me fué la noche entera
mMI
en ella pensar
pero tengo la esperanza
de mirarla hoy en clase
de abrazarla y de besarla
aunue el examen no pase
PARA ESOS PERRIENS QUE NO ESTUDIAN, LA CAGAN PERO LA CAGAN GACHO
COMO CUANDO PIERDEN UN SEMESTRE POR ALGUIEN QUE NO VALE LA PENA,
DE ELLA MEJOR NI HABLO, ELLA SI ME PAGO MAL
LA CAGA, LA CAGO Y TODOS LA CAGAMOS O NO???



© LaCuerda.net · Aviso Legal · Privacidad