Acordes de Guitarra » B »Bronco » Que no quede huella (Tab)

Que no quede huella
Bronco

Letras, Notas, Punteos, Tablaturas y Acordes de Guitarra (Tabs & Chords)

  • Letra y Acordes
    LAm                                             MI7
    Esta canción que canto amigos, es una mas de doloR
                                                       LAm
    si es que me ven lloranto amigos disculpenme por favor
    
    REm LAm MI LAm *2
    
    LAm                                              MI7
    traigo en el alma pena y llanto que no puedo contener
                                                    LAm
    y es que la quiero tanto y tanto pero me toco perder
    
    LA7                      REm             SOL
    Y ahora tengo que olvidarla tambien, y  arrancarla
           DO           
    de mi alma y mi ser 
    FA                           REm-MI7
    y de aque amor que quema mi piel
                  LAm
    que no quede nada
    
  • Tab p/Bajo
    Ahi va esta cancion
    00:18
    E|---5--5--|---------|--7--7-|-------------|
    A|--5--5-5-|--7---55-|-7--7--|--7----------|
    D|---------|-7--7----|-------|-7--7-5-8-7--|
    G|---------|---------|-------|-------------|
    
    E|---5--5-|---------|--7--7-|-----|
    A|--5--5--|--7---55-|-7--7--|--7--|
    D|--------|-7--7----|-------|-7---|
    G|--------|---------|-------|-----|
    
    Traigo en el alma
    E|-----------|--7--7--7--7-|-----|
    A|---7--7--8-|-7--7--7--7--|--7--|
    D|--7--7--7--|-------------|-7---|
    G|-----------|-------------|-----|
    
    y ahora tengo
    E|------|--5--|----|--3--|-----|--5---|--7--|-------------|
    A|---7--|-5-5-|--5-|-3-3-|--3--|-5-56-|-7-7-|-------------|
    D|--7-7-|-----|-5--|-----|-3-3-|------|-----|-7----9--97--|
    G|------|-----|----|-----|-----|------|-----|----97-97----|
    
    Que no quede huella
    E|-----|--5---|-|--------|--5--5--|-------|
    A|--7--|-5--5-|-|--7--7--|-5--5-5-|--7----|x2
    D|---7-|------|-|-7--7-7-|--------|-7--7--|
    G|-----|------|-|--------|--------|-------|
    
    que no quede huella de ti
    E|-----7-
  • +
    ¡Colabora con nosotros!
    Envíanos tu versión de esta canción

Letra de Que no quede huella
Esta canción que canto amigos, es una mas de doloR
si es que me ven lloranto amigos disculpenme por favor
traigo en el alma pena y llanto que no puedo contener
y es que la quiero tanto y tanto pero me toco perder
Y ahora tengo que olvidarla tambien, y arrancarla
de mi alma y mi ser
y de aque amor que quema mi piel
que no quede nada
que no quede huella que no y que no que no quede huella
por que estoy seguro quie tu mi amor ya ni me recuerdas
que no quede huella que no y que no que no quede huella
por que estoy seguro quie tu mi amor ya ni me recuerdas
que no quede huella de ti ni de los besos que te di
para convenserme mejor que yo ya te perdi



© LaCuerda.net · Aviso Legal · Privacidad