Acordes de Guitarra » B »Bronco » Adoro (Tab)

Adoro
Bronco

Letras, Acordes y Tabs para Guitarra, Bajo y Ukulele

  •  LAm                       REm
    Adoro la calle en que nos vimos,
       SOL                   DO
    la noche cuando nos conocimos.
     LAm                   REm
    Adoro las cosas que me dices,
                        MI7                    LAm REm-MI7
    nuestros momentos felices, los adoro, vida mía.
    
     LAm                     REm
    Adoro la forma en que sonríes
     SOL                        DO
    y el modo en que a veces me riñes.
     LAm                 REm
    Adoro la seda de tus manos,
                      MI7                    LAm
    los besos que nos damos, los adoro, vida mía.
    
         REm         SOL           DO
    Y me muero por tenerte junto a mí,
    
  •  MIm                       LAm
    Adoro la calle en que nos vimos,
       RE                    SOL  Am B7
    la noche cuando nos conocimos.
     MIm                   LAm
    Adoro las cosas que me dices,
                        SI7                    MIm  Am B7
    nuestros momentos felices, los adoro, vida mía.
    
     MIm                     LAm
    Adoro la forma en que sonríes
     RE                         SOL  Am B7
    y el modo en que a veces me riñes.
     MIm                 LAm
    Adoro la seda de tus manos,
                      SI7                    MIm  Am B7
    los besos que nos damos, los adoro, vida mía.
    
         LAm         RE            SOL
    Y me muero por tenerte junto a mí,
    
  • Esta es la cancion junto con su compositor
    no me acuerdo que se llama
    Intro
    E|------------|-----------|----------|-------|--------|
    A|--7--7-7--7-|-----------|---9---9--|-7-0-2-|-333-2--|
    D|---99---99--|-7--7-7--7-|-9---9--9-|-------|--------|
    G|------------|--99---99--|----------|-------|--------|
    
    E|------------|------|-------|-7-----|-7------|-------|
    A|--7--7-7--7-|------|--7--7-|---7-9-|---9-7--|-9-77--|
    D|---99---99--|-7--7-|-7-7---|-------|--------|-------|
    G|------------|--99--|-------|-------|--------|-------|
    
    Adoro la calle
    E|-----7--|-7---|-----|-----|-5--|-5----------|
    A|--7---7-|--7--|--7--|-7-5-|--5-|--5--5---2--|
    D|----9---|---7-|---7-|--7--|----|---5---5----|
    G|--------|-----|-9---|-----|----|------------|
    
    Adoro las cosas que
    E|----|-----|-----|------|-------|----|------|----|------|
    A|----|-2---|-2---|------|-------|----|------|-2--|-3-2--|
    D|--2-|---2-|--2--|--22--|-2-----|-4--|-4--2-|--2-|------|
    G|----|-----|---2-|-2--2-|---2-4-|--4-|--4---|----|------|
    
    Adoro la 
  • +
    ¡Colabora con nosotros!
    Envíanos tu versión de esta canción

Letra de Adoro
Adoro la calle en que nos vimos,
la noche cuando nos conocimos.
Adoro las cosas que me dices,
nuestros momentos felices, los adoro, vida mía.
Adoro la forma en que sonríes
y el modo en que a veces me riñes.
Adoro la seda de tus manos,
los besos que nos damos, los adoro, vida mía.
Y me muero por tenerte junto a mí,
cerca, muy cerca de mí, no separarme de ti.
Es que eres mi existencia, mi sentir,
eres mi luna eres mi Sol, eres mi noche de amor.
Adoro el brillo de tus ojos,
lo dulce que hay en tus labios rojos.
Adoro la forma en que suspiras
y hasta cuando caminas yo te adoro, vida mía
Y me muero por tenerte junto a mí,
cerca, muy cerca de mí, no separarme de ti.
Es que eres mi existencia, mi sentir,
eres mi luna eres mi Sol, eres mi noche de amor.
el final:
yo te adoro, vida mía.
para los perrines romanticos, llevense esta de serenata y cantenla
como mi viejo amogo lupe y veran que si no aflojan!!! la cagan la cagas




[Adoro chords][Adoro cifra]
© LaCuerda.net · aviso legal · privacidad · es · en · pt · contacto