Acordes de Guitarra » B »Bryndis » Me haces falta (Tab)

Me haces falta
Bryndis

Letras, Acordes y Tabs para Guitarra, Bajo y Ukulele

  • INTRO (C,G,F,G,C)(X2)
    
             C
    Se me esta acabando ya
         G             Am
    la fuerza del corazon
             F
    se me esta acabando ya
               G
    porque me haces falta mi amor
    
    
           C
    La verdad es que sin ti
           G           Am
    yo ya no podre seguir
           F 
    te llevaste la ilucion
           G
    y sin ti no se vivir
    
  • INTRO:C,G,F,G,C  X2
                     (T)
    e|----8--10-10--12-12--12-10-12--15-13-12--10-|
    B|--8-----------------------------------------|
    G|--------------------------------------------|
    D|--------------------------------------------|
    A|--------------------------------------------|
    E|--------------------------------------------|
                     (G)
    e|--10--12-13-12-13-13-12-13--17-15-15--13-12-|
    B|--------------------------------------------|
    G|--------------------------------------------|
    D|--------------------------------------------|
    A|--------------------------------------------|
    E|--------------------------------------------|
                     (T)
    e|----8--10-10--12-12--12-10-12--15-13-12--10-|
    B|--8-----------------------------------------|
    G|--------------------------------------------|
    D|--------------------------------------------|
    
  • +
    ¡Colabora con nosotros!
    Envíanos tu versión de esta canción

Letra de Me haces falta
Se me esta acabando ya
la fuerza del corazon
se me esta acabando ya
porque me haces falta mi amor
La verdad es que sin ti
yo ya no podre seguir
te llevaste la ilucion
y sin ti no se vivir
Con tu partida
dejaste mi vida
la melancolia y la tristeza
de profundas heridas
Y de esta herida
que tu me has dejado
solamente tu podras curar
si estas a mi lado
La verdad es que sin ti
la dicha se me acabo
desde entonces soy infeliz
vuelve a mi lado amor




[Me haces falta chords][Me haces falta cifra]
© LaCuerda.net · aviso legal · privacidad · es · en · pt · contacto
DINAMICO