Acordes de Guitarra » B »Bryndis » Otro ocupa mi lugar (Tab)

Otro ocupa mi lugar
Bryndis

Letras, Acordes y Tabs para Guitarra, Bajo y Ukulele

  • intro:Am,G,Am,G,F,E7,Am.
    
    Am
    Y TU GRAN AMOR
    QUE CON TU VOZ, TU AMANECER
    Dm
    EL COMPAÑERO DE TU AYER
    G
    Y MI ALMA Y MI HOGAR
    MI JUVENTUD, MI SOLEDAD
    C                Am
    AME TU CUERPO, TU SONRISA
    Dm                    E7
    TUS DEFECTOS, TUS CARICIAS.
    
    
    CORO:
    Am                  Dm
    Y AHORA OTRO OCUPA MI LUGAR
    G                 C
    
  • Am
    Fui tu gran amor tu echo, tu voz
                        Dm 
    tu amanecer el compañero de tu ayer
    G
    te di mi alma, mi hogar, mi juventud
    
    MI soledad. 
            C            Am          Dm       
    Ame tu cuerpo, tu sonrisa, tus defectos
            G 
    tus caricias.
                 Am          Dm  G 
    y ahora otro ocupa mi lugar, otro duerme
            C   Am             Am    G
    junto a ti. es dificil olvidar, comprender
              C          Am           Dm
    que mi camino se me acababa, que sin ti
              G
    no valgo nada
    
  • Hola, como ven es mi primera participación espero les guste. Esta rola esta bien chida, nada mas recuerden que es algo rapida.
    La canción esta en Am, pero omiti la letra y los acordes ya que los otros compañeros las pusieron.
    
    
    
    E---------------------------------------------------------------------------------------------------
    B-----------------------------------------------------------------------------8------8--8/10--------
    G-------9----7-----------------------------9---9--7------------------------7-----7--------------9---
    D-----------------10---9----7---9---10--------------10---9----7----9--------------------------------
    A---------------------------------------------------------------------------------------------------
    E---------------------------------------------------------------------------------------------------
    
    E---------------8----7----------------------------------------7----5----------------------------
    B---------10------------10---8--7--8---------------
  • e |-0---------------------|-0---------------0--3---|-3--5----|
    B |---3--1--0--1--3--4--5-|---3--1--0--1--3------3-|------5--|
    G |-----------------------|------------------------|---------|
    D |-----------------------|------------------------|---------|
    A |-----------------------|------------------------|---------|
    E |-----------------------|------------------------|---------|
    
    e |-5--7--8--7--5--3--2--3-|-0---0---|-3--5--7--5--3--1--0--1-|
    B |------------------------|---3---3-|------------------------|
    G |------------------------|---------|------------------------|
    D |------------------------|---------|------------------------|
    A |------------------------|---------|------------------------|
    E |------------------------|---------|------------------------|
    
    e |------------|-1--3--5--3--1--0---0--|-0--1--0-----------------|
    B |-3--1--3--1-|------------------3----|---------3--1--3--1--0---|
    G |------------|-----------------------|-----------------------2-|
    D |------------|-----------------------|-------------------------|
    A |------------|-----------------------|-------------------------|
    E |------------|-----------------------|-------------------------|
    
  • Intro
    E|------|------|-----|------|-3---|-3----|-----|------|
    A|--0---|-0----|-0---|-0----|---5-|---55-|-0---|-0----|
    D|----2-|---22-|---2-|---22-|-----|------|---2-|---2--|
    G|------|------|-----|------|-----|------|-----|------|
    
    E|------|-3---|-3---|-1---|-1---|-----|------|
    A|--0---|---5-|---5-|---3-|---3-|-----|---3--|
    D|----2-|-----|-----|-----|-----|-2---|-2----|
    G|------|-----|-----|-----|-----|---4-|------|
    
    E|--------|
    A|--0-3---|x4
    D|-----2--|
    G|--------|
    
    Fui tu
        x6                       x6
    E|-------|------|-------|-3-----|-------|------|------|--------|
    A|--0-3--|-5-8--|-5-5-5-|---2-5-|-3-----|-0-3--|-5-8--|-7-5-3--|
    D|-----2-|----7-|----7--|-------|---2-5-|----2-|----7-|--------|
    G|-------|------|-------|-------|-------|------|------|--------|
    
    Otro ocupa mi lugar
         x2                    x2       x2
    E|-------|------|-------|-3-----|--------|
    A|--0-3--|-5-8--|-5-5-5-|---2-5-|-3------|
    D|-----2-|----7-|----7--|-------|---2-5--|
    G|-------|------|-------|-------|--------
  • +
    ¡Colabora con nosotros!
    Envíanos tu versión de esta canción
  • Tutorial
    HD
    Como tocar "Otro Ocupa Mi Lugar De Grupo Brindys" en guitarra (HD)
    Tutorial-Rayyguitarist
    8:51

Letra de Otro ocupa mi lugar
Y TU GRAN AMOR
QUE CON TU VOZ, TU AMANECER
EL COMPAÑERO DE TU AYER
Y MI ALMA Y MI HOGAR
AME TU CUERPO, TU SONRISA
TUS DEFECTOS, TUS CARICIAS.
Y AHORA OTRO OCUPA MI LUGAR
OTRO DUERME JUNTO ATI
ES DIFICIL OLVIDAR
COMPRENDER, QUE MI CARIÑO SE ACABABA
QUE SIN TI NO VALGO NADA
Y TU GRAN AMOR.........
Y AHORA OTRO OCUPA MI LUGAR........
ESO ES TODO SI TIENEN ALGUNA DUDA NO DUDEN EN ESCRIBIR.




[Otro ocupa mi lugar chords][Otro ocupa mi lugar cifra]
© LaCuerda.net · aviso legal · privacidad · es · en · pt · contacto