Acordes de Guitarra » B »Bonanza » Quiero abrazarte tanto (Tab)

Quiero abrazarte tanto
Bonanza

Letras, Acordes y Tabs para Guitarra, Bajo y Ukulele

  • INTRO: D D7
    
       G                   D                   A
    E -3-5-5s7---3-5-5s7---2-3-3s5---2-3-3s5---0-2-2s3---0-2-2s3-3-
    B -5-7-7s8---5-7-7s8---3-5-5s7---3-5-5s7---2-3-3s5---2-3-3s5-5-
    G -------------------------------------------------------------
    D -------------------------------------------------------------
    A -------------------------------------------------------------
    E -------------------------------------------------------------
    
       D       D7
    E -2-3-5---7h5-3-2---------------------------------------------
    B -3-5-7-------------------------------------------------------
    G -------------------------------------------------------------
    D -------------------------------------------------------------
    A -------------------------------------------------------------
    E -------------------------------------------------------------
    
       G                   D                   A                   D
    E -3-5-5s7---3-5-5s7---2-3-3s5---2-3-3s5---0-2-2s3---0-2-2s3-3-2
    
  •   RE 
    siento tu mano tibia
             RE7        SOL 
    correr despacio sobre mi piel
                               LA 
    y tu pecho en mi pecho, tu desnudez
                           RE 
    y olvido reproches que imagine
      RE 
    vente conmigo al huerto
                               SOL 
    que estan las rosas queriendo ver
                                 LA 
    la promesa que has hecho para volver
                            RE 
    y asi creer en lo que les conte
             LA 
    dije que te queria ...
                     RE 
    como a nadie en el mundo
    
  • +
    ¡Colabora con nosotros!
    Envíanos tu versión de esta canción

Letra de Quiero abrazarte tanto
Siento tu mano fría viéndose el espacio sobre mi piel
y tu pecho en mi pecho tu desnudez
que ni lo reproches que imaginé
Vente conmigo al huerto que están las rosas queriendo ver
la promesa que has hecho para volver
y así creer en lo que les conté... dije que te quería...
Como a nadie en el mundo
Que seguía tus pasos tu caminar
como un lobo en celo dejé mi hogar
con la puerta abierta de par en par
de par en par
Que viví en penumbras nuestro rincón
en aquel salón
con dos cubiertos y tu canción
y con tus flores en el jarrón
Siento tu mano tibia que palmo a palmo besa mi piel
y tus brazos me enredan hoy como ayer
en este nuevo día vuelvo a creer
Vente conmigo al huerto que hay una barca esperándonos
con tu nombre pintado secando al sol
y tu mano grabada junto al timón... sabes que te quiero...
Como a nadie en el mundo
Que seguía tus pasos tu caminar
como un lobo en celo dejé mi hogar
con la puerta abierta de par en par
de par en par
Que viví en penumbras nuestro rincón
en aquel salón
con dos cubiertos y tu canción
y con tus flores en el jarrón
Quiero abrazarte tanto con mil sentidos con tanto amor
que no haya más sonido que no es de vos
tu cuerpo y el mío a continuación
Yaparé la tierra como un Romeo buscando a dios
y veré en tu regazo tu comprensión
y una casa pequeña para los dos... sabes que te quiero...
Como a nadie en el mundo
Que seguía tus pasos tu caminar
como un lobo en celo dejé mi hogar
con la puerta abierta de par en par
de par en par
Que viví en penumbras nuestro rincón
en aquel salón
con dos cubiertos y tu canción
y con tus flores... en el jarrón...




[Quiero abrazarte tanto chords][Quiero abrazarte tanto cifra]
© LaCuerda.net · aviso legal · privacidad · es · en · pt · contacto
DINAMICO