Acordes de Guitarra » B »Bonanza » Cuando agosto era 21 (Tab)

Cuando agosto era 21
Bonanza

Letras, Acordes y Tabs para Guitarra, Bajo y Ukulele

  • REm                                          SOLm
    Se ocultaba en los pilares de los viejos pasadizos
    DO                                  FA               SOLm
    Para esconder el hijo que pronto iba a llegar, fue difícil esconder
        REm                    DO          REm
    En un pobre delantal los tres meses de más.
    
    REm                             SOLm
    Y salía del colegio, con un siete en la libreta
    DO                                FA                     SOLm
    Y en el vientre una cometa que pronto querrá volar, y se iba a caminar
          REm                    DO            REm
    Y se iba a preguntar por las calles sin final.
    
    REm                               SOLm
    Y se fue donde un cura quien le dijo era pecado
    DO                           FA                   SOLm
    Y muy pronto un abogado le hablo de lo legal, y fue el profesor de ciencias
              REm                            DO         REm   SOLm
    Quien le habló de la inconsciencia de la juventud actual.......
    
  •        Em     A        D        Bm     Em   F#     Bm      B
    E -0-2-2h3--2-0------0-2--5-2-0--------0---------------0h2-2--
    B --------------2--3------------3--2-3----3-2--0-2-2h3--------
    G ------------------------------------------------------------
    D ------------------------------------------------------------
    A ------------------------------------------------------------
    E ------------------------------------------------------------
    
    
           Em          A             D        Bm     Em       F#         Bm
    E -0-2-2h3--7-9-10-9--7--9-9-9-7-5--5-7-9-7--7-5-3--3-5-7-6--4-4-4-6-7—2------
    B ------------------------------------------------------------------------3-0-
    G ----------------------------------------------------------------------------
    D ----------------------------------------------------------------------------
    A ----------------------------------------------------------------------------
    E ----------------------------------------------------------------------------
    
    
             Bm  
    Se encontraba en los pilares 
    
  •        MIm       LA       RE         SIm
    1)------------------------------5-------
    2)--5-7-7h8--7h8-5-----3-5-5h7----7-5-3-
    3)-----------------6--------------------
    
            MIm   FA#        SIm
    1)----------------------------------
    2)--2-3-3h5--3-2------2-3--5-7-----
    3)------------------4--------------
    
            MIm         LA         RE       SIm
    1)-----------7-9-10-9-7---9-9-7-5--5-7-9-7--------
    2)--5-7-7h8---------------------------------------
    3)------------------------------------------------
    
              MIm      FA#      SIm
    1)--7-7-5-3--3-5-7-6---4-6-7-----------
    2)---------------------------7---------
    3)-----------------------------7-4-----
    
    
  • Empieza con el rasgueo
    
    
    E ------------------------------------------------------------------------
    B ------------------------------------------------------------------------
    G ------------------------------------------------------------------------
    D ------------------2---2----2--0--4-2-0----------------------------------
    A ---------2---2--4---4----4--------------4-2-0-----------4--------4------
    E --7h0--3---3-----------------------------------3-2-0-6-----2--6---------
    
    E ------------------------------------------------------------------------
    B ------------------------------------------------------------------------
    G ------------------------------------------------------------------------
    D -------------------------0-----------0-4-2-0-----------------------------
    A --2--2-0---------------2---2--------2---------4-2-0----------4------4-----
    E ----------0-2-3*-3*-3*-------0-3*3*3----------------3-2-0--6---2-6--------
    
    E -------------------------------------------------
  • +
    ¡Colabora con nosotros!
    Envíanos tu versión de esta canción

Letra de Cuando agosto era 21
Se ocultaba en los pilares de los viejos pasadizos
Para esconder el hijo que pronto iba a llegar, fue difícil esconder
En un pobre delantal los tres meses de más.
Y salía del colegio, con un siete en la libreta
Y en el vientre una cometa que pronto querrá volar, y se iba a caminar
Y se iba a preguntar por las calles sin final.
Y se fue donde un cura quien le dijo era pecado
Y muy pronto un abogado le hablo de lo legal, y fue el profesor de ciencias
Quien le habló de la inconsciencia de la juventud actual.......
de la juventud actual.
Los que juzgan, no han sentido, el amor, el dolor y en el vientre unos
latidos
Y se enredan en prejuicios, y el amoooooo..or
Y le hablaban de pastillas y le hablaban de remedios
Y una vieja mujercilla que el trabajo lo hace bien, no falto la buena amiga
Esa amiga entre comillas que le dio la dirección.
Y salia desde el colegio, en una amplia mañana
Cuando la vieja campana aún no daba su talán, mientras el profe de ciencias
Hablaba de la inconsciencia de la juventud actual......
de la juventud actual.
Los que juzgan ............
Cuando Agosto era 21, la encontraron boca arriba
Con la mirada perdida y su viejo delantal, y en el bolso de colegio
Dibujado un corazón que decía tú y yo....
que decía tú y yo
Los que juzgan, no han sentido, el amor, el dolor y en el vientre unos
latidos
Y se enredan en prejuicios, y el amoooooo..........ooor
SUERTE ......INTERPRETENLO COMO QUIERAN...




[Cuando agosto era 21 chords][Cuando agosto era 21 cifra]
© LaCuerda.net · aviso legal · privacidad · es · en · pt · contacto