Acordes de Guitarra » B »Bonanza » Fiel compañera (Tab)

Fiel compañera
Bonanza

Letras, Acordes y Tabs para Guitarra, Bajo y Ukulele

  • SOLm              SOL             DOm
    Voy a ensender la llama de tu corazón
    RE#m           RE7           SOLm
    pa' que me quieras, para quererte,
               SOLm        SOL            DOm
    voy a inventarme mil caricias en tu honor
            RE7                 SOLm
    y hacer con ellas lo que tú quieras.
    
    
             RE#          FA          SIb       
    Y voy a amarte intersamente eternamente 
            DOm       RE7      SOLm      
    como se debe amar sin condiciones,
              RE#        FA            SIb   
    te hare feliz mujer amante mi compañera
             DOm   RE7     SOLm     
            RE#7 RE7            SOLm        
    mi fiel amante... mi compañera.
    
    
  •     Gm
    e |----3--5h3-3-3---
    B |---3-3------3-3--
    G |--3---3--------3-
    D |-5---------------
    A |-----------------
    E |-----------------
    
    Punteo para la 1ra Guitarra:
    Acompaña la segunda con un argegiado similar al del inicio
    
        Gm     G      Cm         D#       Gm           Cm        D#
    e |-------------7-8--8-10-11-10-8-6-8-10--10-11-13-11-10-8-6-8--
    B |-10p7-7-8-10-------------------------------------------------
    G |-------------------------------------------------------------
    D |-------------------------------------------------------------
    A |-------------------------------------------------------------
    E |-------------------------------------------------------------
    
                D7       Gm        G               D#
    
  • +
    ¡Colabora con nosotros!
    Envíanos tu versión de esta canción

Letra de Fiel compañera
Voy a ensender la llama de tu corazón
pa' que me quieras, para quererte,
voy a inventarme mil caricias en tu honor
y hacer con ellas lo que tú quieras.
Y voy a amarte intersamente eternamente
como se debe amar sin condiciones,
te hare feliz mujer amante mi compañera
mi fiel amante... mi compañera.
Haré que el tiempo del reloj
no tenga prisa
para beberme de tus caricias,
seré el amigo de tu piel
seré tu abrigo,
seré la calma de tus suspiros.
Y voy a amarte...




[Fiel compañera chords][Fiel compañera cifra]
© LaCuerda.net · aviso legal · privacidad · es · en · pt · contacto
DINAMICO