Acordes de Guitarra » B »Bersuit Vergarabat » Gentes De Mierda (Tab)

Gentes De Mierda
Bersuit Vergarabat

Letras, Acordes y Tabs para Guitarra, Bajo y Ukulele

  • C
    Vengo pidiendo pista
                          G
    me aburre tanto este río,
    
    no doy más, no va más, ¡No doy más!, ¡SI!,
                  C
    quiero algún lio ...
    
    Si no se entera naides
                   F
    me la voy a jugar,
                     C
    que soledad en monte,
    G7             C
    vos y yo nada más ...
    F                C     
    soledad en el monte
    G7               C
    vos y yo nada más ...
    
  • e--10t8p5h8-10t8p5---------------------------------/
    B------------------10t8p5h8-10t8p5--8p6p5h6-8-6-5--/
    G--------------------------------------------------/
    D--------------------------------------------------/
    A--------------------------------------------------/
    E--------------------------------------------------/
    
    e-10t8p5h8-10t8p5----------------------------------/
    B-----------------10t8p5h8-8-8-8-6-5---------------/
    G------------------------------------7-5-----------/
    D--------------------------------------------------/
    A--------------------------------------------------/
    E--------------------------------------------------/
    
    C
    Vengo pidiendo pista
                          G
    me aburre tanto este río,
    no doy más, no va más, ¡No doy más!, ¡SI!,
                  C
    
  • INTRO:
    e--10t8p5h8-10t8p5---------------------------------/
    B------------------10t8p5h8-10t8p5--8p6p5h6-8-6-5--/
    G--------------------------------------------------/
    D--------------------------------------------------/
    A--------------------------------------------------/
    E--------------------------------------------------/
    
    
    e-10t8p5h8-10t8p5----------------------------------/
    B-----------------10t8p5h8-8-8-8-6-5---------------/
    G------------------------------------7-5-----------/
    D--------------------------------------------------/
    A--------------------------------------------------/
    E--------------------------------------------------/ 
    
    SOLO:
    
    e--12-15-15--10-12-12--8-10-10--7-8-8--5-7-7--5-7-7p5---------/
    B-----------------------------------------------------8-6-----/
    G-------------------------------------------------------------/
    D-------------------------------------------------------------/
    A-------------------------------------------------------------/
    E--
  • +
    ¡Colabora con nosotros!
    Envíanos tu versión de esta canción

Letra de Gentes De Mierda
Vengo pidiendo pista
me aburre tanto este río,
no doy más, no va más, ¡No doy más!, ¡SI!,
quiero algún lio ...
Si no se entera naides
me la voy a jugar,
que soledad en monte,
vos y yo nada más ...
soledad en el monte
vos y yo nada más ...
Ahora te hacés la estrecha
y alguna vez algo hubo,
que bizcocho, que mate, que té, ¡SI!.
Cuanto amor puro ...
No quiero controlarme
no ves que no puedo más
Ay mamá, Ay mamá, MAMAMELA ...
Si te venís pa' monte
debo decirte la verdad
esta vez, vas a ver,
como vas a quedar
Si venís, ay mamá, MAMAMELA




[Gentes De Mierda chords][Gentes De Mierda cifra]
© LaCuerda.net · aviso legal · privacidad · es · en · pt · contacto