Acordes de Guitarra » B »Bersuit Vergarabat » El tiempo no para (Tab)

El tiempo no para
Bersuit Vergarabat

Letras, Acordes y Tabs para Guitarra, Bajo y Ukulele

  • G                                 Am 
    Y tu cabeza está llena de ratas
                              D           
    te compraste las acciones   de esta farsa
    B7                    C7  Cmaj7 (opcional)
    y el tiempo no para
    
    Yo veo al futuro repetir el pasado
    veo un museo de grandes novedades
                      C7        (C-B-A-G) Em
    y el tiempo no para, no para
    
    Em
    Disparo contra el sol con la fuerza del ocaso
    Am                                       D
    mi ametralladora esta llena de magias
                       Em
    pero soy solo un hombre mas 
    
    Cansado de correr en la dirección contraria
    
  •         SOL            LAm7
    Y tu cabeza está llena de ratas
                              RE            SI
    te compraste las acciones de esta farsa
                     DO
    y el tiempo no para
    
        SOL                   LAm7
    Yo veo al futuro repetir el pasado
                           RE         SI
    veo un museo de grandes novedades
                     DO        do;si;la;sol...
    y el tiempo no para, no para
    
    MIm
    Disparo contra el sol con la fuerza del ocaso
    LAm7                            RE
    mi ametralladora esta llena de magias
            MIm
    pero soy solo un hombre mas
    
  •     Em
        Disparo contra el sol con la fuerza del ocaso,
        Am                                   D
        mi ametralladora está llena de magias,
                   Em
        pero soy, solo un hombre más.
    
        Em
        Cansado de correr en la dirección contraria,
        Am                                           D
        sin podio de llegada y mi amor, me corta la cara,
                    Em
        porque soy sólo un hombre más.
    
        Em
        Pero si pensás que estoy derrotado,
        Am
        quiero que sepas que me la sigo jugando,
        D                               Em
        porque el tiempo, el tiempo no para.
    
  • - A - Compas (4/4)
      
    
    ACORDES:
    
         G   Am  D   B7  B7  C   C   Em  Gm  F#m 
    |e|--3---0---2---2---2---0---3---0---3---2-----------------------||
    |B|--3---1---3---4---0---1---5---0---3---2-----------------------||
    |G|--0---2---2---2---2---0---5---0---3---2-----------------------||
    |D|--0---2---0---4---1---2---5---2---5---4-----------------------||
    |A|--2---0-------2---2---3---3---2---5---4-----------------------||
    |E|--3---------------------------0---3---2-----------------------||
    
    
    INTRO:
    
                                              D        B7         C
    |e|--3---3-----------------------------------2----------------------3--||
    |B|--4H5-3-------------3------1------1H3-----3-3-------4----------5----||
    |G|---------4P2P0--2H4-----------0H2-------2---------------------------||
    
  • e--------------|--------------|----------------|--------------
    B--------------|--------------|----------------|--------------
    G--------------|--------------|----------------|--------------
    D--------------|-----------1/2|---0h2--0-------|--------------
    A--3--2--0-----|--0--2--3-----|-----------2--0-|---3--2--0----
    E-----------3--|--------------|----------------|------------2-
    
    
    BAJADA 1
    
         Em    B5   D5
    e-----0----X-----X---
    B-----0----X-----X---
    G-----0----4-----7---
    D-----2----4-----7---
    A-----2----2-----5---
    E-----0----X-----X---
         ♪♪    ♪     ♪
    
    INTRODUCCIÓN:
    
  • e--------------
    B--------------
    G--------------
    D--2--0--------
    A--------2--0--
    E--------------
    
    
    Cambio 2:
    
    e--------------
    B--------------
    G-(5)(4)(2)----
    D-(5)(4)(2)(5)-
    A--3--2--0-(5)-
    E-----------3--
    
    
    Cambio 3:
    
    
  •                               LAm                RE     SI7     DO             SOL(CEJILLA)  LAm
    1e||-------|---2-|-----2-|------8---8------12-|--3--|
    2b||-------|---3-|-----0-|--------8-----------|--0--|
    3g||-0/2---|---2-|-----2-|-4/9--------9/12----|--0--|
    4d||-----3-|-0---|---1---|--------------------|--0--|
    5a||-------|-----|-2-----|--------------------|--2--|
    6e||-------|-----|-------|--------------------|--3--|
                 RE    SI7                          SOL
    
        RIFF 1     RIFF 2    RIFF 3    RIFF 4      RIFF 5
    1e||-----0--|------2---|-----2-|--2--2-----|----------|
    2b||-----1--|------3---|-----0-|--3----3---|----------|
    3g||-----2--|----2-----|-----2-|--2------2-|----------|
    4d||---2----|--0-------|---1---|--0--------|--2-0-----|
    5a||--0-----|----------|-2-----|-----------|------2-0-|
    6e||--------|----------|-------|-----------|----------|
    
    
    SOL                              RIFF 1
      Y tu cabeza esta llena de ratas
    
  • Esta es una corrección del tema.
    
    Verso x3
    G|--------------------------|         *=varias veces
    D|--------------------------|
    A|-------0*---5*------------|
    E|-0*---------------00-3-5--|
    
    Unos días sí, otros no.../Nos tildan de ladrones...
    G|--------------------------------|--------------|
    D|--------------------------------|--------------|
    A|-7---7----0--2--3--7---5*-------|-7--5--2------|
    E|---0---0----------------------0-|----------5--3|
    
    Y tu cabeza está llena de ratas...             ...¡no para! ¡NO!
    G|---------------------------------|         |------------------|
    D|-------------------------------5-| (x2)    |------------------|
    A|-----0*----3-5--5-3-2--2h3-3-33-3| después |--3---2-----------|
    E|3*-------------------------------|         |----------5---3---|
    
    Esta es la parte que va después del primer estribillo y el final
    G|----------------|
    D|----------------|
    A|-----7~-555-2222|
    E|-0-0------------|
  • +
    ¡Colabora con nosotros!
    Envíanos tu versión de esta canción
  • Tutorial
    Como tocar: el tiempo no para (para principiantes)
    4:46

Letra de El tiempo no para
Y tu cabeza está llena de ratas
te compraste las acciones de esta farsa
y el tiempo no para
Yo veo al futuro repetir el pasado
veo un museo de grandes novedades
y el tiempo no para, no para
Disparo contra el sol con la fuerza del ocaso
mi ametralladora esta llena de magias
pero soy solo un hombre mas
Cansado de correr en la dirección contraria
Sin podio de llegada y mi amor me corta la cara
Porque soy solo un hombre mas
Pero si pensas que estoy derrotado
quiero que sepas que me las sigo jugando
porque el tiempo, el tiempo no para
Unos dias si otros no
estoy sobreviviendo sin un rasguñon
por la caridad de quien me detesta
Y tu cabeza está llena de ratas...
Yo veo al futuro repetir el pasado...
Yo no tengo fechas para recordar
mis dias se gastan de par en par
buscando un sentido a todo esto
Las noches de frio mejor ni nacer
las de calor se escojen matar o morir
y asi nos hacemos argentinos
Nos tildan de ladrones, maricas, faloperos
y ellos sumergieron a un pais entero
pues así, se roban mas dinero
(Estribillo en portugués, idioma que no se escribir)
COMPLETA Y EL SOLO DE VIOLA NO TIENE MAS QUE SOLICITARLO. YO LAS
CONFECCIONO. NO LAS PUSE AHORA PORQUE LLEVAN UN POCO DE TIEMPO.
ESTA ES LA LETRA CORRECTA DE ESTA VERSIÓN.
Enviado por Diego Sebastián
Sugerencias y pedidos de canciones en particular sin cargo
enviar pedido a diecob@yahoo.com
Espero que les sirva.




[El tiempo no para chords][El tiempo no para cifra]
© LaCuerda.net · aviso legal · privacidad · es · en · pt · contacto