Acordes de Guitarra » B »Bersuit Vergarabat » Vuelos (Tab)

Vuelos
Bersuit Vergarabat

Letras, Acordes y Tabs para Guitarra, Bajo y Ukulele

  • PARTE A
    
        EbmajD7   C    G/B  G/Bb F/A  C*
    E||-6----5----3----3----3----3----3-||
    B||-8----7----5----0----3----1----1-||
    G||-7----5----5----0----0----2----0-||
    D||-8----7----5----0----0----3----2-||
    A||-6----5----3----2----1----0----3-||
    E||-6----5----3----x----------------||
    
    PARTE B
    
         Cm   Dm   G    Am   Em   Ebmaj7
    E||--3----5----3----0----0----6----||
    B||--4----6----3----1----0----8----||
    G||--5----7----4----2----0----7----||
    D||--5----7----5----2----2----8----||
    A||--3----5----5----0----2----6----||
    E||------------3---------0----6----||
    
    
  • D#maj7           D7/4
      Vos me estás mirando
                 C9
    y yo voy a caer.
    G/B                G/Bb
    Colgado en tu sien.
    
    F9                
      Vos me estás mirando
               C      
    y yo voy a caer.
    
      No me ves pero ahí voy
    
    a buscar tu prisión
    
    de llaves que sólo cierran.
    
                       
      No me ves pero ahí voy
    
  • Ebmaj7               D7sus4
           Vos me estás mirando
               Csus2
    y yo voy a caer.
                   G
    Colgado en tu sien.
    Gm                F9
       Vos me estás mirando
               Csus2
    y yo voy a caer.
    
    No me ves pero ahí voy
    a buscar tu prisión
    de llaves que sólo cierran.
    No me ves pero ahí voy
    a encontrar tu prisión.
    
    Y la bruma rebota siempre hacia aquí,
    espuma de miedo, viejo apagón.
    Y la bruma rebota
    
  • PARTE A
    
      Ebmaj Dsus4 C   G/B  G/Bb F/A   C
    E||-6----5----3----3----3----3----0-||
    B||-8----8----1----3----3----1----1-||
    G||-7----5----0----0----0----2----0-||
    D||-8----7----2----0----0----3----2-||
    A||-6----5----3----2----1----0----3-||
    E||-6----5----x----x----------------||
    
    
    PARTE B (arpegiando) x2(la 2da vez,no hacer "arreglito",
    sino G  Gsus4 G)
    
    
       C6/9 D#maj7 Dm7  Arreglito: G    [ Am4/7  G/B ]
    E||--3----3----5-----------------------------------||
    B||--3----3----6---------------0-------1-----3-----||
    G||--5----3----5-----------------0-------0---------||
    D||--6----5----7-------------------0---------------||
    
  • Ebmaj7          Dm7                C
    Vos me estás mirando y yo voy a caer,
                   G/B       G/Bb
    colgado en tu sién.
                   F/A                 C
    Vos me estás mirando y yo voy a caer.
    
    No me ves pero ahí voy
    a buscar tu prisión
    de llaves que sólo cierran...
    No ves pero ahí voy a encontrar tu prisión.
    
    Y la bruna rebota siempre hacia aquí.
    Espuma de miedo,
    viejo apagón,
    y la bruma rebota, siempre hacia aquí.
    
    Cm
    Solo voy a volver,
    Ebmaj7
    
  • Ebmaj              F                C
    Vos me estás mirando y yo voy a caer,
                    G
    colgado en tu sién.
    Ebmaj            F                 C
    Vos me estás mirando y yo voy a caer.
    
    Ebmaj                F                   C
    No me ves pero ahí voy, a buscar tu prisión
                              G
    de llaves que sólo cierran...
    Ebmaj            F                      C
    No ves pero ahí voy a encontrar tu prisión.
    
    Ebmaj          F                   C
    Y la bruna rebota siempre hacia aquí.
                               G
    Espuma de miedo,viejo apagón,
    Ebmaj          F                    C
    y la bruma rebota, siempre hacia aquí.
    
  • Primera Parte(3 veces)
    ------- --------------
    
    |------------------|------------------|------------------|------------------|
    |------8--------8--|------7--------7--|------5--------5--|------5--------5--|
    |-6-6---------6---6|-5-5---------5---5|-3-3---------3---3|-2-2---------2---2|
    |------------------|------------------|------------------|------------------|
    
       1   2   3    4     1   2   3    4     1   2   3    4     1   2   3    4
    
    |------------------|------------------|------------------|------------------|
    |------------------|------------------|-----5---------5--|------5--------5--|
    |------8--------8--|------7--------7--|-3-3---------3---3|-3-3---------3---3|
    |-6-6---------6---6|-5-5---------5---5|------------------|------------------|
    
       1   2   3    4     1   2   3    4     1   2   3    4     1   2   3    4
    
    Estribillo
    ----------
    									
    |------------------|------------------|------------------|------------------|  
    |------------------|------------------|---
  • +
    ¡Colabora con nosotros!
    Envíanos tu versión de esta canción
  • Tutorial
    Cómo tocar Vuelos Acordes BIEN EXPLICADOS Letra Bersuit Vergarabat Tutorial Tablatura Cover acústico
    3:36
  • Tutorial
    HD
    Explicado - Como tocar "Vuelos" de Bersuit Vergarabat en el bajo tutorial#115
    5:44

Letra de Vuelos
Punteo
Arpegio en Dm x2
Vos me estás mirando y yo voy a caer,
colgado en tu sién.
Vos me estás mirando y yo voy a caer.
No me ves pero ahí voy
a buscar tu prisión
de llaves que sólo cierran...
No ves pero ahí voy a encontrar tu prisión.
Y la bruna rebota siempre hacia aquí.
Espuma de miedo,
viejo apagón,
y la bruma rebota, siempre hacia aquí.
siempre me vas a ver
y cuando regrese
de este vuelo eterno.
siempre a través de mí
un paisaje de espanto así.
PARTE A:
Y el nylon abrió
sus alas por mí...
y ahora ve solo viento.
Y el nylon abrió
sus alas en mi.
Tu cara se borra,
se tiñe de gris,
serás una piedra sola...
Te desprendes de mí,
yo me quedo en vos...
Ya mis ojos son barro
en la inundación
que crece, decrece,
aparece y se va
y mis ojos son barro
en la inundación
PARTE B:
siempre me vas a ver
y cuando regrese
de este vuelo eterno.
siempre a través
de mí un paisaje de espanto así.
Sólo verás en mi
Siempre a través de mí
Un paisaje de espanto espanto…




[Vuelos chords][Vuelos cifra]
© LaCuerda.net · aviso legal · privacidad · es · en · pt · contacto