Acordes de Guitarra » B »Bersuit Vergarabat » Cambiar el alma (Tab)

Cambiar el alma
Bersuit Vergarabat

  • Letra y Acordes
      Am
    E------------------------------------------
    A------------------------------------------
    D-7-----------------7---7------------------
    G---5-------------5-------5-----------5----
    B-----5---------5------------5--6--5-------
    E-------5-5-5-5----------------------------
                                                E7
    E--------------------------------------------------
    A--------------------------------------------------
    D-7-----------------7-----7--7---------------------
    G---5-------------5-------------5--6--5--6---------
    B-----5---------5---------------------------5------
    E-------5-5-5-5------------------------------------
    
    Am
    No estoy muerto ni estoy enterrado vivo
                                  E7/9
    No concibo las razones que percibo
    Am
    
  • Letra y Acordes
    F
    INTRO (x2)
    
      Am                    F            Am
    E------------------------------------------
    A------------------------------------------
    D-7-----------------7---7------------------
    G---5-------------5-------5----------------
    B-----5---------5------------5--6--6-5-----
    E-------5-5-5-5----------------------------
      Am                                         E7
    E--------------------------------------------------
    A--------------------------------------------------
    D-7-----------------7-----7--7---------------------
    G---5-------------5-------------5--7--5--(7-9)-----
    B-----5---------5----------------------------------
    E-------5-5-5-5------------------------------------
    
    Am
    No estoy muerto ni estoy enterrado vivo
    
  • +
    ¡Colabora con nosotros!
    Envíanos tu versión de esta canción

Letra de Cambiar el alma
No estoy muerto ni estoy enterrado vivo
No concibo las razones que percibo
No estoy triste nada más estoy shockeado
No estoy loco, solamente algo mareado
ESTRIBILLO
No se puede cambiar, no se puede cambiar
No se puede cambiar el alma
No se puede cambiar, no se puede cambiar
No se puede cambiar el alma
INTERLUDIO (igual que intro)
Soy valiente, en la vida suelto el freno
el presente me lo juego todo a pleno
Otra vuelta, hay más rosca en esta tuerca
(ESTRIBILLO)
No se puede cambiar, no se puede cambiar
No se puede cambiar el alma
No se puede cambiar, no se puede cambiar
No se puede cambiar el alma
Se puede abandonar la educación sentimental
el carácter y la forma de pensar
La perra por un gato aunque sea por un rato
podés pedir prestado un corazón
INTERLUDIO (igual que INTRO)
No se puede cambiar, no se puede cambiar
No se puede cambiar el alma
No se puede cambiar, no se puede cambiar
No se puede cambiar el alma
No se puede amarrar, no se puede encerrar
No se puede cambiar el alma
No se puede matar, no se puede vaciar
No se puede cambiar el alma
No se puede cambiar el alma
No se puede cambiar...
CODA (igual que INTRO)
Acordes que quizás no conozcan o que quizás los escribí mal... son así
Acorde 6º 5º 4º 3º 2º 1º
Gracias... espero que les guste lo nuevo de Bersuit



© LaCuerda.net · aviso legal · privacidad · contacto