Acordes de Guitarra » B »Benny Ibarra » Irremediable (Tab)

Irremediable
Benny Ibarra

Letras, Acordes y Tabs para Guitarra, Bajo y Ukulele

  • Intro      Am G Em F     (2)
    
    Am   G   Em  D
    No estoy intacto,
    Am G        Em        F
    con esta vida que confiesa,
    Am G        Em       F
    con este corazón colmado
            Am  G     Em   F
    que la pérdida completa.
    
    Am   G     Em   D
    No estoy tranquilo,
    Am G         Em        F
    con este sueño que tropieza,
    Am   G         Em         F
    pero abandonarlo todo estoy,
              Am G  Em D
    dispuesto ahora.
    
    
  • G         Am
    No estoy intacto
    G             F
    con esta vida que confieza
    G                 Am
    con este corazón colmado
           B         Dm
    que la pérdida completa
    
    G             Am
    No estoy tranquilo
    G               F
    con este sueño que tropieza
    G                 Am
    para abandonarlo todo
                   B      Dm
    estoy dispuesto ahora
    
    
    -CORO-
    
  • e----------------------------------
    B--3/5---3--1--------3-------1-----
    G----------------2-------2---------
    D----------------------------------
    A----------------------------------
    E----------------------------------
    
    Aqui empiesa la cansion (1)
    e---------------------------------------------------------
    B------1--------3--------1----------1----------3/5--3--1--
    G-0/2------0/2------0/2-------0/2--------0/2---------------
    D----------------------------------------------------------
    A----------------------------------------------------------
    E----------------------------------------------------------
                         (2)
    e-----------------------------------------------------------
    B-------1--------3-1-----3-----1----3/5--3--1---------3-----
    G--0/2------0/2--------2----2--------------------0/2--------
    D-----------------------------------------------------------
    A-----------------------------------------------------------
    
  • +
    ¡Colabora con nosotros!
    Envíanos tu versión de esta canción

Letra de Irremediable
No estoy intacto,
con esta vida que confiesa,
con este corazón colmado
que la pérdida completa.
No estoy tranquilo,
con este sueño que tropieza,
pero abandonarlo todo estoy,
dispuesto ahora.
Por quererte,
y sólo por quererte,
azul es la distancia que guardamos,
entre el amor y un secreto,
azul es la medida,
de la espera cuando una vida,
se vuelca, irremediable
hacia otra viiiiida.
No estoy inquieto,
con este miedo de entregarte,
lo que he ocultado siempre,
al filo del silencio.
Hacia otra vi i-i i-i i-i ida,
vi i-i i-i i-i ida,
irremediable.
Si estoy despierto,
es que esta noche estoy solo,
aun suspiro de tu cuerpo
si estoy perdido,
azul es la respuesta.




[Irremediable chords][Irremediable cifra]
© LaCuerda.net · aviso legal · privacidad · es · en · pt · contacto
DINAMICO