Acordes de Guitarra » B »Benny Ibarra » Cancion de Luna (Tab)

Cancion de Luna
Benny Ibarra

Letras, Acordes y Tabs para Guitarra, Bajo y Ukulele

  • D*  XX1212
    -------------------------------------------------------------------
    
    F 
    Tarde ya casi las dos
    Am
    sombras en mi habitación
    Cm7       D* D7
    y la luna llena.
    Gm
    Dibujando tu perfil
    Bb
    tan sereno al sonreir
        C                 F
    perdido en el resplandor,
       Gm     D#       F   C      F
    en magico mundo de sueños.
    
     
    F
    
  • F                     F*
    Tarde ya casi las 2, sombras en la habitación,
    Cdim        D7
    y la luna llena.....
    Gm                   Gm7 
    dibujando tu perfil, tan sereno al sonreír,
        C 
    perdido en el resplandor
          Bb      G         C
    de un mágico mundo de sueños.....
    
    F                     F*
    Me fascina verte así, indefensa, infantil,
    Cdim         D7
    más allá de todo......
    Gm                    Gm7
    mariposa de cristal, tibia en la oscuridad,
    C
    y me gusta imaginar
    Bb              G         C
    
  • E.CABALLERO
    
    e---------------------------------------------
    B------12------9---7---5---4------------------
    G-9-11----9---0--0---0---0--------------------
    D-9-------------------------------------------
    A---------------------------------------------
    E---------------------------------------------
    
    EMPIEZA CON ALGO MAS O MENOS ASI...
    
    e-----7-----7-----7-----7-------
    B-7-9---7-9---7-9---7-9---------
    G-------------------------------
    
    e-----6-----6-----6-----6-------
    B-6-8---6-8---6-8---6-8---------
    G-------------------------------
    
    e------9-----9------9------9----
    
  • +
    ¡Colabora con nosotros!
    Envíanos tu versión de esta canción

Letra de Cancion de Luna
Tarde ya casi las dos
sombras en mi habitación
y la luna llena.
Dibujando tu perfil
tan sereno al sonreir
perdido en el resplandor,
en magico mundo de sueños.

Me fascina verte asi
indefensa e infantil
mas alla de to..do
mariposa de cristal
tibia en la obscuridad
y me gusta imaginar.
Que tal vez tu sueñas conmi..go
deja que te acunen mis brazos
no te quiero despertar.
deja que te siga los pasos y al soñar
dejame llegar mas alla.
Siento que tu sueñas conmi...go
y a la luz un rayo de luna
nos volvemos a encontrar
y flotamos entre la espuma y el coral
de un inmenso mar.
Deja que te siga los pasos
vamos juntos a volar
deja que te acune en mis brazos
porque ya en tu sueño estoy
junto a ti...
AQUI TIENEN LA ROLA QUE TANTO PIDEN... :-)
CUALQUIER DUDA, COMENTARIO O SUGERENCIA SOLO ME ESCRIBEN VA.
THE VAMPIRE.




[Cancion de Luna chords][Cancion de Luna cifra]
© LaCuerda.net · aviso legal · privacidad · es · en · pt · contacto
DINAMICO