Acordes de Guitarra » B »Belkings » La Playa (Tab)

La Playa
Belkings

  • Tablatura
    INTRO
    
    E|---------------1-----1----------1-----1-------
    B|---------------3-----3---3------3-----3---3---
    G|---------------2-----2---2------2-----2---2---
    D|----------------------------------------------
    A|----------4-----------------------------------
    E|-4--7--4--------------------------------------
    
    VERSE
    
    E|-----------------------------------------------------
    B|-----------------------------------------------------
    G|-----------------------------------------------------
    D|-7------------8-----7--5-----------------------------
    A|-------8---5--------------8--7--5--4------7----------
    E|-----------------------------------------------5-----
    
    E|----------------------------------------------------------
    B|----------------------------------------------------------
    G|----------------------------------------------------------
    D|---------------5-----8--7--5---------------5--/--7--7-----
    A|-------4---7------------------8--7--8---------------------
    E|-5---------------------------------------------
  • +
    ¡Colabora con nosotros!
    Envíanos tu versión de esta canción





© LaCuerda.net · aviso legal · privacidad · contacto