Acordes de Guitarra » B »Belkings » El sonido del silencio (Tab)

El sonido del silencio
Belkings

  • Tablatura
       Asus2                  Gsus2
    e|----12----12----12----12----10----10----10----10--5---------------------
    B|-------12----------12----------10----------10-----5---------------------
    G|-14----------14----------12----------12-----------5---------------------
    D|--------------------------------------------------7---------------------
    A|--------------------------------------------------7---------------------
    E|--------------------------------------------------5---------------------
                   D         G              Am                    F      C Am
    e|---------------------------------------------------------3-3-5-5.-5-3.--
    B|---------5-5----5------------------------------------5-5----------------
    G|-----5-5-----7.---7-5-7.-----4-4-7-7-5-5.--------5-5--------------------
    D|-7-7---------------------5-5--------------7-5-7.------------------------
    A|------------------------------------------------------------------------
    E|------------------------------------------------------------------------
                   F      C Am            F                 C          Am
    e|---------3-3-5-5.-5-3.-----------3-3-5-5.-5-7-8-8.-7-5-3-3.-3-5-3-------
    B|-----5-5---------------------5-5----------------------------------5-5.--
    G|-5-5---------------------5-5--------------------------------------------
    D|------------------------------------------------------------------------
    A|------------------------------------------------------------------------
    
  • +
    ¡Colabora con nosotros!
    Envíanos tu versión de esta canción





© LaCuerda.net · aviso legal · privacidad · contacto