Acordes de Guitarra » B »Belkings » El cóndor pasa (Tab)

El cóndor pasa
Belkings

Letras, Acordes y Tabs para Guitarra, Bajo y Ukulele

  •    Am                                          C         E     Am
    e|------------------------|-----------------------------------------------
    B|------------------------|------------------------10p8-------------------
    G|------------------------|---------4-5-4-5-7-7s9.-------9.-7-5----7h5----
    D|------------------------|---7-6-7-----------------------------7.-----7.-
    A|------------------------|-7---------------------------------------------
    E|-5.-5-5-3-5-3-0-5.-(x6)-|-----------------------------------------------
                          C        E      Am            F
    e|--------------------------------------------------5-4-5-4-5-4-5-4-5.----
    B|------------------------10p8--------------------5-----------------------
    G|---------4-5-4-5-7-7s9.------9-.-7-5----7h5-----------------------------
    D|---7-6-7-----------------------------7.-----7.--------------------------
    A|-7----------------------------------------------------------------------
    E|------------------------------------------------------------------------
         G           C    F                    G          C
    e|-8-3-3.-3h5-3-------5-4-5-4-5-4-5-4-5.-8-3-3.-3h5-3---------------------
    B|---------------5.-5---------------------------------5.------------------
    G|------------------------------------------------------------------------
    D|------------------------------------------------------------------------
    A|------------------------------------------------------------------------
    
  • e|---------------------0---3-0--0-5-3-0---0--------------------------------
    B|-----------0-1-0-1-3----------------------3-1-3-1----1-------------------
    G|-----2-1-2----------------------------------------2---2--(bis)-----------
    D|--2----------------------------------------------------------------------
    A|-------------------------------------------------------------------------
    E|-------------------------------------------------------------------------
    
    e|------0-5--3-5-3-5-3-5--5-8-5-3--3-5-3-0-(bis)-0--------------------0-5--
    B|--1-3--------------------------------------------3-1---1-----1---3-------
    G|-----------------------------------------------------2--2--2---2---------
    D|-------------------------------------------------------------------------
    A|-------------------------------------------------------------------------
    E|-------------------------------------------------------------------------
    
    esto ya es más rápido
    
    e|--------------------0-0-0-3-0-0---0--------------------------------------
    B|----------0-1-0-1-3-------------3---3-1----------------------------------
    G|----2-1-2-------------------------------2-2-2(bis)-----------------------
    D|--2----------------------------------------------------------------------
    
  • +
    ¡Colabora con nosotros!
    Envíanos tu versión de esta canción






[El cóndor pasa chords][El cóndor pasa cifra]
© LaCuerda.net · aviso legal · privacidad · es · en · pt · contacto