Acordes de Guitarra » B »Belinda » Muriendo lento (Tab)

Muriendo lento
Belinda

Letras, Acordes y Tabs para Guitarra, Bajo y Ukulele

  • e|-----------------------------|-----------------------------
    B|--7-6-7-9-3-2----------------|--7-6-7-9-3-2----------------
    G|----------------4-6----7-6---|----------------4-6----7-6---
    D|-----------------------------|-----------------------------
    A|-----------------------------|-----------------------------
    E|-----------------------------|-----------------------------
    
    
    [Intro] (Riff A)
    
    F#5                               B5
    Quizas no sientas lo que yo senti  -
                           F#5
    Tal vez no hay lagrimas ni  miedo
    F#5                                    B5
    Tal vez no piensas ni un momento en mi  -
                           F#5
    Tal vez hay alguien en tus sueños.
    
    
    
  • MI amor ILUVU
    
    
    Bueno les explico:
    
     ``br´´ =bend and release (no se como traducirlo pero es como
                               jalar la cuerda y soltarla algo asi)
    
    ``^v^v´´=este tampoco se explicarlo pero es igual que el bend and
             release solo que esta vez es con la palanca que tienen las
             guitarras electricas que tampoco se como se llama. :)
    
      ``x´´= esta es tapar la nota con la palma de la mano derecha,en ingles
             es ``palm mute´´
    
     ``~~´´= Vibrato (vibrar)
    
      ``/´´= Slide (resbalar)
    
    
    
  • E||------------------------|--------------------|--------------------|
    B||--7-6-7-9---------------|----------6~---6/---|--7~----------------|
    G||----------7~-------6----|--------------------|-----------7--6-----|
    D||------------------------|--------------------|--------------------|
    A||------------------------|--------------------|--------------------|
    E||------------------------|--------------------|--------------------|
    Gtr 2                F#5
    E||-------------------------------------------------------------------|
    B||-------------------------------------------------------------------|
    G||-------------------------------------------------------------------|
    D||-------------------4-----------------------------------------------|
    A||-------------------4-----------------------------------------------|
    E||-------------------2-----------------------------------------------|
    Gtr 1
    E||------------------------|--------------------|--------------------|
    B||--7-6-7-9---------------|----------6~---6/---|--7~----------------|
    G||----------7~-------6----|--------------------|-----------7--6-----|
    D||------------------------|--------------------|--------------------|
    A||------------------------|--------------------|--------------------|
    E||------------------------|--------------------|--------------------|
    
  • myspace.com/alejandrolauyola
    
    Nota para que la toquen bien
    no se confundan, la afinación de este bajo de 5 cuerdas es:
    
    
    G||-------|
    D||-------|
    A||-------|
    E||-------|
    B||-------|
                 H        E  Q.        W
    G||-------|---------------------|-------------------|
    D||-------|---------------------|-------------------|
    A||-------|---------------------|-------------------|
    E||-------|---------------------|-------------------|
    B||-------|--------------3------|--L----------------|
    
    
      E   H.           E     H.              H        E  Q.
    ----------------------|---------------|---------------------|
    ----------------------|---------------|---------------------|
    ----------------------|---------------|---------------------|
    -----14------------L--|--L------------|---------------------|
    --L-------------------|---------------|--------------3------|
    
    
      W                   E   H.           E     W
    -------------------|----------------------|-------------------|
    -------------------|----------
  • +
    ¡Colabora con nosotros!
    Envíanos tu versión de esta canción

Letra de Muriendo lento
Quizas no sientas lo que yo senti -
Tal vez no hay lagrimas ni miedo
Tal vez no piensas ni un momento en mi -
Tal vez hay alguien en tus sueños.
Donde esta el amor
Donde esta tu corazón
Te necesito ya nada es igual
Y es que al pensarte todo me hace mal.
Si tu no estas dame una razon
Para no morir lento
Dime que debo hacer para olvidar -
que alguien me escuche en el cielo
esta tan roto ya mi corazon -
como le digo que fue un juego
Donde esta el ayer
Donde esta el amor
Donde esta tu corazón
No te pareces nada a quien yo ame
Y lentamente se me va la fe.
Si tu no estas dame una razon
Para no morir lento... lento ohhh!!!
Soplaba el viento a nuestro favor -
y tocabamos el cielo
mira mis ojos y dime si es verdad -
que nuestro amor llego al final.
Donde esta el ayer
Donde esta el amor
Donde esta tu corazón
Te necesito ya nada es igual
Y es que al pensarte todo me hace mal.
Si tu no estas dame una razon
Para no morir lento... lento.
No te pareces nada a quien yo ame
Y lentamente se me va la fe.
Si tu no estas dame una razon
Para no morir lento... lento
Lento... lento
[Outtro] (Riff A)




[Muriendo lento chords][Muriendo lento cifra]
© LaCuerda.net · aviso legal · privacidad · es · en · pt · contacto