Acordes de Guitarra » B »Belinda » Boba niña nice (Tab)

Boba niña nice
Belinda

Letras, Acordes y Tabs para Guitarra, Bajo y Ukulele

  • INTRO: E5 B5 C#5 A5 X2             
    
                 B5  C#5
    no es un adios,
                    A5  E5
    aunque lo nuestro 
           B5  C#5
    se acabó
            A5  E5
    lo lamento 
           B5  C#5
    y lo peor 
           A5  E5
    no soy yo, 
    C#5     B5      A5  E5
    sino tu nuevo amor.
             B5  C#5
    Tu decisión
                A5  E5
    no la entiendo. 
    
  • 
    fig 1 (distior) 
    -------------------------------------------
    -------------------------------------------
    -------------------------------------------
    ---------4-4-4-4-6-6-6-6-2-2-2-2-----------
    -2-2-2-2-2-2-2-2-4-4-4-4-0-0-0-0-----------
    -0-0-0-0-----------------------------------
    
    intro 
    fig 1
    
    fig 2
    -------------------------------------------
    -------------------------------------------
    -------------------------------------------
    -----4-4-6-6-2-2-4-------------------------
    2-2--2-2-4-4-0-0-2-2-----------------------
    0-0----------------0-----------------------
    
    fig 3
    -------------------------------------------
    -------------------------------------------
    -------------------------------------------
    ----------4-4-6-6-6-x-x-2-2-4---6--4---2---
    -2--2-x-x-2-2-4-4-4-x-x-0-0-2---4--2---0---
    -0--0-x-x----------------------------------
    
    fig 2
    no es un adios
    aunque lo nuestro 
    se acabo
    lo lamento
    fig 3
    y lo peor
    no soy yo
    sino tu nuevo amor
    fig 2
    tu decici
  • intro
    G----------------------------
    D----------------------------
    A----------------------------
    E-0000--7777-9999-5555-------  x2
    
    verse1
    G-------------------------------------------------------
    D-------------------------------------------------------
    A--7----------------------------------------------------
    E----7779--5550-7779-5550-7779--555--9-99-7777-55555555- x2
    
    verse2
    G--------
    D--------
    A--------
    E-9~~~~-- x2
    
    coro
    G----------------------------
    D----------------------------
    A-9999-----------------------
    E-----9999-11-11-11-11--7777- x2
    
    G------------------------------------------------
    D------------------------------------------------
    A-9999-8888--------------------------------------
    E----------11-11-11-11--9999-7~777777-9-99999999-
    
    (repite una vez la 1er parte del coro)
    
    intro
    verse1(x2)
    verse2
    coro(x2)
    
    puente
    G--------------------------------------
    D--------------------------------------
    A-55555555-77777777--------------------
    E-------
  • +
    ¡Colabora con nosotros!
    Envíanos tu versión de esta canción

Letra de Boba niña nice
no es un adios,
aunque lo nuestro
se acabó
lo lamento
y lo peor
no soy yo,
sino tu nuevo amor.
Tu decisión
no la entiendo.
Es un error
yo nunca te miento.
Es muy nice,
si hay luz,
es fea como avestruz.
Ya verás,
no te preocupes,
al final yo ganarè.
Esa boba niña nice,
muchas como ellas siempre hay,
piensan que es un placer que caigas en su red...
yeeee
esa boba niña nice,
¡pobre boba niña nice!


En el salón
no me haces caso,
tú sólo estás
pendiente de ese trapo.
No se tú,
pero yo
le quitaré su disfraz,
Ya verás no te preocupes,
al final yo ganaré.
Esa boba niña nice,
muchas como ellas siempre hay,
piensan que es un placer que caigas en su red...
yeeee
Esa boba niña nice,
muchas como ellas siempre hay,
piensan que es un placer que caigas en su red...

Pobre niña nice,
te arrepentirás,
ya verás...a...a...a
Dile adiós a tu novio.....
¡Shack!
Esa boba niña nice,
muchas como ellas siempre hay,
piensan que es un placer que caigas en su red...
yee
Esa boba niña nice,
muchas como ellas siempre hay,
piensan que es un placer que caigas en su red...
yee
ESO ES TODO OJALA Y LES GUSTE
AHH, LUEGO LES MANDO LAS TABS.
SALE PUES SALUDOS A TODOS LOS DE ACAPULCO
AL IRVING AL MARCOS A LA PACA AL RICKI ETC ETC....
daviddg1@hotmail.com




[Boba niña nice chords][Boba niña nice cifra]
© LaCuerda.net · aviso legal · privacidad · es · en · pt · contacto