Acordes de Guitarra » B »Barón Rojo » El Presidente (Tab)

El Presidente
Barón Rojo

Letras, Acordes y Tabs para Guitarra, Bajo y Ukulele

  • e-----------------------------------------
    B-----------------------------------------
    G-----------------------------------------
    D-----------------------------------------
    A-----------------------------------------
    E---3-3-3-3-3-3-3-3-3-3-3-3-3-3-----------
    
    
    x4 veces.
    SOl RE  SOL DO SOL RE FA
    e-----------------------------------------
    B-----------------------------------------
    G----7------5-------7---------------------
    D--5-7----5-5-----5-7-3-------------------
    A--5-5----5-3-----5-5-3-------------------
    E--3------3-------3---1-------------------
    
    
    ESTROFA
    SOL P.M......                        FA-DO-FA-DO
    
  • +
    ¡Colabora con nosotros!
    Envíanos tu versión de esta canción

Letra de El Presidente
x4 veces.
ESTROFA
Estás prisionero en el ojo del huracán
Mueves tus resortes, pero no tienes libertad
Siempre estás pendiente de que nada le ha de faltar
Al gran responsable de los males de mi ciudad
ESTRIBILLO
Se que podrás utilizarme
Con gran facilidad
Pero yo no quiero dejarme
Tendrás que pelear
Siempre serás Sólo un farsante
Como esta sociedad
Tienes un coche tan flamante
Como tu necedad
ESTROFA
Eres como un perro que obedece sin rechistar
Vives tan sumiso como el barco a la tempestad
Has colaborado con las fuerzas del capitán
Pero ya muy pronto de tu cuerpo prescindirán
ESTRIBILLO
Se que podrás utilizarme
Con gran facilidad
Pero yo no quiero dejarme
Tendrás que pelear
Siempre serás sólo un farsante
Como esta sociedad
Tienes un coche tan flamante
Como tu necedad




[El Presidente chords][El Presidente cifra]
© LaCuerda.net · aviso legal · privacidad · es · en · pt · contacto
DINAMICO