Acordes de Guitarra » B »Barón Rojo » Cuerdas de acero (Tab)

Cuerdas de acero
Barón Rojo

  • Tablatura
     A5______________________________________         A5   B5   D5   E5    E5
                    X2
    e-2---2-------------------2---2----------------/------------------------
    B--5b2-2-------------------5b2-2---------------/------------------------
    G--------5b4b2--4-2--------------5b4b2--4--2---/--4b2--4b2--4b2--4b2----
    D--------------4-4--4-2-4--------------4--4--4-/-----4----4----4----4--2-
    A----------------------------------------------/-----------------------2
    E----------------------------------------------/-----------------------0-
    
    RIFF1
    TONOS
     F#5               C#5-B5-A5
    G-----------------------------------------
    D-----------------------------------------
    A-7-7-7-7b9¬--7-7-7-11--9--7--------------
    E-----------------------------------------
    
    
    F#5                              C#5-B5-A5
    Vamos sonando con gran intensidad,
    
  • Tablatura
    E ||---2-(2)p0---0------------------------|--2-(2)p0---0---------------------||
    B ||-----------2---2----------------------|----------2---2-------------------||
    G ||o----------------5p4p2---4-2----------|----------------5p4p2---4-2------o||
    D ||o----------------------4------4-2~-4~-|----------------------4-----2-4~~o||
    A ||--------------------------------------|----------------------------------||
    E ||--------------------------------------|----------------------------------||
    
    
    ---------------------------------------|-------------------------------------||
    ---------------------------------------|-------------------------------------||
    -----4p2-----6p2-----4p2-----6p2-------|--(4)--------------------------------||
    ----------4-------4-------4-------4----|------2------------------------------||
    ---------------------------------------|------2------------------------------||
    ---------------------------------------|------0------------------------------||
    
    
    
    Riff post estribillo:
    
    
    
  • +
    ¡Colabora con nosotros!
    Envíanos tu versión de esta canción

Letra de Cuerdas de acero
X2
RIFF1
TONOS
Vamos sonando con gran intensidad,
Sobre una nube de gritos y sudor.
Cuanta energía, guardada en tu interior,
Nuestro objetivo vencer la soledad.
pre-coro
No hay otra imagen que pueda expresar,
Toda esa fuerza, la magia ritual.
RIFF1
Puede ser fría, helado manantial,
Un ser distante sin comunicación.
Puede ser fuego que brota de un volcán,
O un sentimiento que llega al corazón.
Ojalá el tiempo no logre romper,
Todos los lazos que te unen al rock.
Y tú, tormenta de truenos y luz,
Eres símbolo de libertad.
Yo nunca podría vivir,
Sin tus cuerdas de acero tocar.
acompañamiento del solo:
Solo1: todo esto x2
termina:
Alma de hierro, en formas de mujer,
Madera noble curada por el sol.
Es tu sonido un tacto a flor de piel,
Son tus acordes un grito de pasión.
Ojalá el tiempo no logre romper,
Todos los lazos que te unen al rock.
Y tú, tormenta de truenos y luz,
Eres símbolo de libertad.
Yo nunca podría vivir,
Sin tus cuerdas de acero tocar.
solo1
solo2, va con toda la base de la cancion y el pre-coro x1
Y tú, tormenta de truenos y luz,
Eres símbolo de libertad.
Yo nunca podría vivir,
Sin tus cuerdas de acero tocar.
final como intro....Y A5-E5
cualquier duda corrijan... asi seguimos rockeando!!!!



© LaCuerda.net · aviso legal · privacidad · contacto