Acordes de Guitarra » B »Barón Rojo » Siempre estás allí (Tab)

Siempre estás allí
Barón Rojo

Letras, Acordes y Tabs para Guitarra, Bajo y Ukulele

  •       Dm
    Llegó el final, cesó el clamor
       G
    La magia se desvaneció
         A#            C        Dm C
    Tus ojos siguen fijos sobre mi
          Dm
    La fría luz de un pabellón
          G
    Sobre un mar de cristales rotos
         A#         C             Dm C
    Y un naufrago se ahoga en un rincón
    
    
    F
    Y mi hogar vuelve a ser
    C                              Gm Dm
    En cualquier lugar cualquier hotel
    F
    Dejo atrás la ciudad
    
  •               E A D G B E
    Acorde A#6*:  x 1 3 0 3 x
           C9*:   x 3 0 0 3 x
           B*:    x 2 x 0 3 1
           G7/B : x 2 x 0 3 1
           G7:    3 x x 0 3 1
    
    Intro:
       Guitarra 1: F C Gm Dm
    e|-12-13--12-13--12-13-12--13-12--13-12--13----15-13-12h13h12-------12----|
    B|------10-----10---------------------------15~---------------15-13----15~|
    G|------------------------------------------------------------------------|
    D|------------------------------------------------------------------------|
    A|------------------------------------------------------------------------|
    E|------------------------------------------------------------------------|
       Guitarra 2:
    e|------------------------------------------------------------------------|
    B|-8--10--8--8-10---8-10--8~~-10--8~~--10--8--10----11-10h11p10-8------8--|
    G|------10~~-----10------------------------------10~~-------------10-9---7|
    D|------------------------------------------------------------------------|
    
  • e|-------------------------------------------------------------------------------------------|
    B|-17-18--------17-18------17-18-17~~-18-17~~-18-17~~-18-15~~-20-18h20p18-17-15----17-15~~~~\|
    G|-----------19-----------------------------------------------------------------17-----------|
    D|-------19~---------19~---------------------------------------------------------------------|
    A|-------------------------------------------------------------------------------------------|
    E|-------------------------------------------------------------------------------------------|
    ||Guitarra 2:                                                                                |
    e|-------------------------------------------------------------------------------------------|
    B|-8--10-----8--8-10--------8--10--8~~-10--8~~--10--8--10--------10-10h11p10-8-------8-------|
    G|-------10~~---------10~~---------------------------------10~~----------------10--9---7~~~~\|
    D|-------------------------------------------------------------------------------------------|
    A|-------------------------------------------------------------------------------------------|
    E|-------------------------------------------------------------------------------------------|
    
    ||Guitarra 1:
    e|-------------------------------------------------------------------------------------------|
    B|-17-18--------17-18-----17-18-17~~-18-17~~-18-17~~-18-15~~-20-18h20p18-17-15h17p15---------|
    G|-----------19----------------------------------------------------------------------17-15-14|
    D|-------19~---------19~---------------------------------------------------------------------|
    A|-------------------------------------------------------------------------------------------|
    
  • e|---12-13--------12-13-------12-13--12-13--12-13--|
    B|-------------------------------------------------|
    G|---------14vvv--------14vvv----------------------|
    
    e|--12-1310v--15-13h15p13-12-10----12-10vvv----|
    B|------------------------------13--------------|
    G|----------------------------------------------|
    
    Guitarra 2 (x2)
    
    G|--9-10-------9-10---------9-10-9-10-9-10-9-107v-|
    D|-------------------------------------------------|
    A|-------12vvv------12vvv--------------------------|
    E|-------------------------------------------------|
    
    G|-12-10h12p10-9-7----9-7-------|
    D|-----------------10-----------|
    A|------------------------------|
    E|------------------------------|
    
    
  • dudas, preguntas o correcciones escriban a mi mail.
    
    G||--------------------|---------------------|--------------------|
    D||--------------------|---------------------|--------------------|
    A||--------------------|---------------------|--3-----------------|
    E||--1--------------0--|--1----1--------1/---|-----------------3--|
    
    
    
    --------------------|--------------------|---------------------|
    --------------------|--------------------|--5--------7----8----|
    --3--------3/-------|--------------------|---------------------|
    --------------------|--3--------------3--|---------------------|
    
    
    
    --------------------|-----------------2----|--------------------|
    --0-----------------|--0------2--3---------|--------------------|
    -----------------0--|----------------------|-----------------3--|
    --------------------|----------------------|--1-----------------|
    
    
    
    --------------------|--------------------|---------------------|
    --3--------3/-------|--------------------|-----------
  • +
    ¡Colabora con nosotros!
    Envíanos tu versión de esta canción

Letra de Siempre estás allí
Llegó el final, cesó el clamor
La magia se desvaneció
Tus ojos siguen fijos sobre mi
La fría luz de un pabellón
Sobre un mar de cristales rotos
Y un naufrago se ahoga en un rincón
Y mi hogar vuelve a ser
En cualquier lugar cualquier hotel
Dejo atrás la ciudad
Dime tu ésta noche ¿A donde irás?
La actuación me hace vibrar
Y el escenario es un volcán
Que brama con sonido atronador
Bañado por sudor y luz
Te busco entre la multitud
Por que yo se que siempre estás allí
Y mi hogar vuelve a ser
En cualquier lugar cualquier hotel
Dejo atrás la ciudad
Dime tu ésta noche ¿A donde irás?
Descenderás al reino de la oscuridad
Sigue buscando una "escalera al cielo"
Dime si habrá alguien que te espere
O solamente mientras te duermes
Los ojos de tus héroes te miran desde la pared
Volvió el clamor no habrá final
La magia no se romperá
Todo está bien si tu estás aquí
Oh, si tu estás aquí.
No habrá final, no habrá final porque yo sé
que siempre estás allí ooooooooooooooooooooh




[Siempre estás allí chords][Siempre estás allí cifra]
© LaCuerda.net · aviso legal · privacidad · es · en · pt · contacto
DINAMICO