Acordes de Guitarra » A »Axel Fernando » Cuando nos vemos (Tab)

Cuando nos vemos
Axel Fernando

Letras, Acordes y Tabs para Guitarra, Bajo y Ukulele

  • e--------3-----1----1--1--|--------3-----0----0--0----|
    B------0-------1----1--1--|------0-------1----1--1----|
    G----2---------2----2--2--|----2---------2----2--2----|
    D-------------------------|---------------------------|
    A--0----------------------|--0------------------------|
    E-------------------------|---------------------------|
    
    
    
    letra:
    
         (pulloff)Dm7              (pulloff)
    e--------3-----1----1--1--|--------3-----0----0--0----|
    B------0-------1----1--1--|------0-------1----1--1----|
    G----2---------2----2--2--|----2---------2----2--2----|
    D-------------------------|---------------------------|
    A--0----------------------|--0------------------------|
    E-------------------------|---------------------------|
         Él no sabe verte,           como yo te veo
    
    
  • +
    ¡Colabora con nosotros!
    Envíanos tu versión de esta canción

Letra de Cuando nos vemos
letra:
(pulloff)Dm7 (pulloff)
Él no sabe verte, como yo te veo
(pulloff)Dm7 (pulloff)
Él esta tan tonto, el está tan ciego
(pulloff)Dm7 (pulloff)
Él no sabe nada, nada de tus sueños
Él no está enterado de tus desvelos
Él no sabe darte lo que yo te entrego,
Él sabe muy poco de tus sentimientos,
Él de ti no tiene, lo que yo si tengo,
Me basta con besarte para saberlo
Am7(al terminar rasgueas en este acorde)
Él no sabe que…
Cuando nos vemos, cuando nos vemos
Mis ojos bailan sobre tu cuerpo
Cuando nos vemos, cuando nos vemos
Cuando nos vemos, cuando nos vemos
Tu eres mi reina y yo tu plebeyo
Cuando nos vemos, cuando nos vemos
No hay imposibles cuando nos vemos.
¿Dime cuando nos vemos?
Él no sabe darte lo que yo te entrego,
Él sabe muy poco de tus sentimientos,
Él de ti no tiene, lo que yo si tengo,
Me basta con mirarte para saberlo
Él no sabe que…
Cuando nos vemos, cuando nos vemos
Mis ojos bailan sobre tu cuerpo
Cuando nos vemos, cuando nos vemos
Cuando nos vemos, cuando nos vemos
Tu eres mi reina y yo tu plebeyo
Cuando nos vemos, cuando nos vemos
No hay imposibles cuando nos vemos.
Y tu sabes que al mirar,
Siempre a mi me encontraras
A tu lado para darte lo que pidas y aun mas
Hasta darte el corazón.
Cuando nos vemos, cuando nos vemos
Cuando nos vemos, cuando nos vemos
Dime cuando nos vemos?
Cuando nos vemos, cuando nos vemos
Mis ojos bailan sobre tu cuerpo
Cuando nos vemos, cuando nos vemos
Cuando nos vemos, cuando nos vemos
Tu eres mi reina y yo tu plebeyo
Cuando nos vemos, cuando nos vemos
No hay imposibles cuando nos vemos.
¿Dime cuando nos vemos?....




[Cuando nos vemos chords][Cuando nos vemos cifra]
© LaCuerda.net · aviso legal · privacidad · es · en · pt · contacto
DINAMICO