Acordes de Guitarra » A »Axel Fernando » Tu amor por siempre (Tab)

Tu amor por siempre
Axel Fernando

  • Letra y Acordes
    LA MI RE  LA (X 2)
    
    
    LA                          SIm
    Estoy enamorado de tu voz y tu ternura
    
    MI                            LA
    Tú eres mi color, mi poesía y mi música
    
    LA                          SIm
    Estoy enamorado de tu mirada tan profunda
    
    MI                            LA
    Que se mete en mi alma, la eleva y me inunda
    
    LA                          SIm
    Estoy enamorado de tu vientre y de tu ombligo
    
    MI                            LA
    De tus manos, tu lengua y hasta tus oídos
    
  • Tablatura
    ---12---12--10---10--9---9--7---7--5-5-4-4-5/7-7-
    -------------------------------------------------
    -------------------------------------------------
    -------------------------------------------------
    -------------------------------------------------
    -------------------------------------------------
    
    
    
    5-5--4-4-----------5--5--4--4-----------------------5-----5--
    ---------7-7-5--5-5------------7-7--5-5------------5-----5---
    ----------------------------------------7-7-7--6-7----6-7----
    -------------------------------------------------------------
    -------------------------------------------------------------
    -------------------------------------------------------------
    
     A                                 Bm
    Estoy enamorado de tu voz y tu ternura
    
     E                              Asus  A
    
  • Tablatura
       A    E  E7   D  F#m  Bm  B
    e|--0-|-0-|-0-|-2-|-2-|-2-|-2-|
    B|--2-|-0-|-3-|-3-|-2-|-3-|-4-|
    G|--2-|-1-|-1-|-2-|-2-|-4-|-4-|
    D|--2-|-2-|-2-|-0-|-4-|-4-|-4-|
    A|--0-|-2-|-2-|-x-|-4-|-2-|-2-|
    E|--0-|-0-|-0-|-x-|-2-|-x-|-2-|
    
    IMTRO:
    
      A                   E
    e|---0-0-0-0-0-0-0-0-|---0-0-0-0-0-0-0-0-|
    B|---2-2-2-2-2-2-2-2-|---0-0-0-0-0-0-0-0-|
    G|-------------------|-------------------|
    D|---2-----2-----2---|---2-----2-----2---|
    A|-------------------|-------------------|
    E|-------------------|-------------------|
    
      D
    e|---0---------------------------------|
    
  • Tablatura
    e-----0--0--0--0--0--0--0--0-|
    B----------------------------|
    G----------------------------|
    D----------------------------|
    A-----0--------0--------0----|
    E----------------------------|
    
    e-----0--0--0--0--0--0--0--0-|
    B-----0--0--0--0--0--0--0--0-|
    G----------------------------|
    D----------------------------|
    A----------------------------|
    E-----4-------4--------4-----|
    
    e-----0--0--0----------------|
    B--------------3--3--3--3--3-|
    G-----2--2--2--2--2--2--2--2-|
    D----------------------------|
    A----------------------------|
    E-----2--------2--------2----|
    
  • +
    ¡Colabora con nosotros!
    Envíanos tu versión de esta canción
  • Tutorial
    HD
    Como Tocar (Tu Amor Por Siempre)
    de Axel Guitarra Tutorial
    7:05
  • Tutorial
    HD
    como tocar TU AMOR POR SIEMPRE - AXEL (TUTORIAL)
    8:35

Letra de Tu amor por siempre
Estoy enamorado de tu voz y tu ternura
Tú eres mi color, mi poesía y mi música
Estoy enamorado de tu mirada tan profunda
Que se mete en mi alma, la eleva y me inunda
Estoy enamorado de tu vientre y de tu ombligo
De tus manos, tu lengua y hasta tus oídos
Estoy enamorado de tu piel tan transparente
Y de tu boca directa que me habla de frente
Y nunca dejarás
De mi boca escuchar decir que
*************************************
Yo quiero ser tu amor por siempre
Yo quiero ser tu amor por siempre
Yo quiero ser tu amor por siempre
Se mi amor, por favor, por siempre
*************************************
Estoy enamorado de tus besos mariposa
De tus logros, tus sueños, de todo lo que tocas
Estoy enamorado de las cosas que no veo
Tus secretos, tu historia, lo que guardas dentro
Y nunca dejarás
De mi boca escuchar decir que
*************************************
Yo quiero ser tu amor por siempre
Yo quiero ser tu amor por siempre
Yo quiero ser tu amor por siempre
Se mi amor, por favor, por siempre
Yo quiero ser tu amor por siempre
Se mi amor, por favor, por siempre
Tu amor por siempre.



© LaCuerda.net · aviso legal · privacidad · contacto