Acordes de Guitarra » A »Axel Fernando » Amo (Tab)

Amo
Axel Fernando

Letras, Acordes y Tabs para Guitarra, Bajo y Ukulele

  •  DO                             SOL
    Amo lo que veo y lo que ocultas, Amo lo que muestras o insinúas,
    LAm                        MIm
    Amo lo que eres o imagino, te amo en lo ajeno y  lo que es mío,
    FA                                    MIm
    Amo lo que entregas, lo que escondes, amo tus preguntas, tus respuestas
    FA                           SOL
    Yo amo tus dudas y certezas, te amo en lo simple y  lo compleja
    ----------------------------------------
    RE                                 LA
    Y amo lo que dices, lo que callas, Amo tus recuerdos, tus olvidos
    SIm                             FA sost
    Amo tus olores, tus fragancias, té amo en el beso y la distancia
    
    ESTRIBILLO
    SOL                           FA sost
    Y amo lo que amas, yo te amo, Te amo por amor sin doble filo
    MIm                           LA
    Te amo y si pudiera no amarte, se que te amaría aun lo mismo
    SOL.                          FA sost
    
  • Intro: C-G-F-(Em-Dm-C)-G
    
    C                                G                               Am
    Amo lo que veo y lo que ocultas, amo lo que muestras o insinúas amo lo que
                      Em                                 F
    eres o imagino, te amo en lo ajeno y lo que es mío, amo lo que entregas lo que
               C                                   F                         G
    escondes, amo tus preguntas tus respuestas, yo amo tus dudas y certezas, te
                                    A7
    amo en lo simple y lo compleja.
    
    
      D                                 A                              Bm
    Y amo lo que dices, lo que callas, amo tus recuerdos, tus olvidos, amo tus
                             F#m                                 G
    olores, tus fragancias, te amo en el beso y la distancia, y amo lo que amas yo
              D                              G                              A
    te amo, te amo por amor sin doble filo, te amo y si pudiera no amarte, se que
                               G                           D
    te amaría aun lo mismo, y amo lo que amas, yo te amo, te amo por amor a dar lo
    
  •    F                  C
    E--5-5-6-8--5-5-10-8--3-3-5-6--3-3-8-6--
    B--6--------6---------5--------5--------
    G--5--------5---------5--------5--------
    D---------------------------------------
    A---------------------------------------
    E---------------------------------------
    
       Dm                G
    E--1-1-3-5--1-1-3-5--7-7-8-10--7-7-8-10--
    B--3--------3--------8---------8---------
    G--2--------2--------7---------7---------
    D----------------------------------------
    A----------------------------------------
    E----------------------------------------
    
      C
      AMO LO QUE VEO Y LO QUE OCULTAS,
     G                           E
      AMO LO QUE MUESTRAS O INSUNÚAS,
    
  • Esta transcripción, lo hice pensando en la chica q amo, porque ella es mi
    inspiración. Si ella no hubiese existido, esta transcripción tampoco hubiera
    existido. Noria, con todo mi amor esta tablatura desde el fondo de mi corazón.
    Espero q alguna ves puedas ver q te amo, y que  a cambio, pido tu amor.
    “TE AMO POR AMOR SIN DOBLE FILO. TE AMO NORIA, Y SI PUDIERA NO AMARTE SE Q TE
    AMARÍA AUN LO MISMO” (Aunque la distancia sea un gran obstáculo. Tú eres para mí,
    un amor real).
    
    Ustedes dirán q hablo mucho, caray pero así es cuando estas enamorado. Ahora si ya
    no digo más.
    ------------------------------------------------------------------------------
    *Escuchen la canción para adecuarse al ritmo y al tiempo.
    
    *Saquéenla si sólo en verdad se quieren lucir. Con esto no digo q esta tranca, pero
    les recomiendo tener mucha paciencia.
    
    AHÍ LES VA!!!
    
     | Amo lo q veo y .......|Amo lo q muestras... |Amo lo q eres o.....   |
    e|------0-0-1-3--0-0-1-3-|---------0-1---
  • AXEL FERNANDO- Amo:
    
    
       Amo lo que  veo y lo que ocultas
    e---1-1-1-1---2--3---1-1--2--3--------------
    B-------------------------------------------
    G-------------------------------------------
    D-------------------------------------------
    A-------------------------------------------
    E-------------------------------------------
       Amo lo que muestras o insinúas
    e-------------------------------------------
    B---1-1-1-1---2--3---1-1--2--3--------------
    G-------------------------------------------
    D-------------------------------------------
    A-------------------------------------------
    E-------------------------------------------
       Amo lo que eres o imagino
    e-------------------------------------------
    B-------------------------------------------
    G---1-1-1-1---2--3---1-1--2--3--------------
    D-------------------------------------------
    A-------------------------------------------
    E-------------------------------------------
       Te amo en lo ajeno y lo que es mío
    e---
  • saludos al CBTis 78 de poza rica ver. al grupo 'I' de laboratorio   2003-2006
    en especial a mi amigas y amigos Nayely,Nora, Yaz,Csar,Ruben,Makario,Rene,Aurio (del mismo grupo)
    a Zusel, Luisa, tania,Btty, diana, etc, etc. (k van conmigo en el ingles) tambien a mi familia y ami hermano jesus, bye
    espéro que esta partitura si la pongan x k la k mande anteriormente no la han puesto
    aunque no se las dedico a los weyes , pero si a mis amigas... besos
    
    
    
    AMO         AXEL FERNANDO
    
    C                                G                               Am
    Amo lo que veo y lo que ocultas, amo lo que muestras o insinúas, amo lo que
    Mi mi mi mifa sol mi mi mifa sol, re re re re mi fa re re mi fa, do do
                      Em                                 F
    eres o imagino, te amo en lo ajeno y lo que es mío, amo lo que entregas,
    lo que escondes,
    do do re mi do do re mi,  si si s isi do re si si do re, la la la la si do la la si do
    
     C                                   F
    amo tus preg
  • +
    ¡Colabora con nosotros!
    Envíanos tu versión de esta canción
  • Tutorial
    como tocar amo de axel fernando completa
    5:02
  • Tutorial
    Como Tocar Amo Axel Fernando Tutorial
    2:48

Letra de Amo
Amo lo que veo y lo que ocultas, Amo lo que muestras o insinúas,
Amo lo que eres o imagino, te amo en lo ajeno y lo que es mío,
Amo lo que entregas, lo que escondes, amo tus preguntas, tus respuestas
Yo amo tus dudas y certezas, te amo en lo simple y lo compleja
Y amo lo que dices, lo que callas, Amo tus recuerdos, tus olvidos
Amo tus olores, tus fragancias, té amo en el beso y la distancia
ESTRIBILLO
Y amo lo que amas, yo te amo, Te amo por amor sin doble filo
Te amo y si pudiera no amarte, se que te amaría aun lo mismo
Y amo lo que amas, yo te amo, Te amo por amor a dar lo mío
Te amo con mi orgullo de quererte, Porque para amarte yo he nacido
Amo lo que seas y lo que puedas, Amo lo que afirmas, lo que niegas
Amo lo que dices, lo que piensas, Te amo en lo que mides y lo que pesas
Y amo lo que atrapas, lo que dejas, Amo tu alegría y tus tristezas
Te amo en la carne y en el alma, Te amo en tus crisis y en tus calmas
Amo lo que pides y regalas, Amo tus caricias, tus ofensas
Amo tus instantes y lo eterno, Te amo en tu cielo y en tu infierno
ESTRIBILLO
Y amo lo que amas, yo te amo, Te amo por amor sin doble filo
Te amo y si pudiera no amarte, Se que te amaría aun lo mismo
Y amo lo que amas, yo te amo, Te amo por amor a dar lo mío
Te amo con mi orgullo de quererte, Porque para amarte yo he nacido
GLP...




[Amo chords][Amo cifra]
© LaCuerda.net · aviso legal · privacidad · es · en · pt · contacto