Tablatura para Guitarra de Axel Fernando: Amo
Conexión · Inscripción
Letras y Acordes
Pantalla Completa
Imprimir
Versión Texto
Añadir Favorito
Otras Versiones

Mostrar Diagramas
Desfile Automático
Manipular Acordes
Formato del Texto


Amo(TAB)

Axel Fernando

calidad:
axfr0235
AUTOR: Axel fernando
ALBUM: desconocido
Enviado por Bilford
AXEL FERNANDO- Amo:


   Amo lo que  veo y lo que ocultas
e---1-1-1-1---2--3---1-1--2--3--------------
B-------------------------------------------
G-------------------------------------------
D-------------------------------------------
A-------------------------------------------
E-------------------------------------------
   Amo lo que muestras o insinúas
e-------------------------------------------
B---1-1-1-1---2--3---1-1--2--3--------------
G-------------------------------------------
D-------------------------------------------
A-------------------------------------------
E-------------------------------------------
   Amo lo que eres o imagino
e-------------------------------------------
B-------------------------------------------
G---1-1-1-1---2--3---1-1--2--3--------------
D-------------------------------------------
A-------------------------------------------
E-------------------------------------------
   Te amo en lo ajeno y lo que es mío
e---5-5-5-5---6--7---5-5--6--7--------------
B-------------------------------------------
G-------------------------------------------
D-------------------------------------------
A-------------------------------------------
E-------------------------------------------

   Amo lo que entregas, lo que escondes
e-------------------------------------------
B---5-5-5-5---6--7---5-5--6--7--------------
G-------------------------------------------
D-------------------------------------------
A-------------------------------------------
E-------------------------------------------
   Amo tus preguntas tus respuestas
e-------------------------------------------
B-------------------------------------------
G---5-5-5-5---6--7---5-5--6--7--------------
D-------------------------------------------
A-------------------------------------------
E-------------------------------------------
   Amo tus dudas tus certezas
e-------------------------------------------
B-------------------------------------------
G---3-3-3---4--5---3-3--4--5----------------
D-------------------------------------------
A-------------------------------------------
E-------------------------------------------
   Te amo en lo simple y lo compleja
e---5-5-5-5---6--7---5-5--6--7--------------
B-------------------------------------------
G-------------------------------------------
D-------------------------------------------
A-------------------------------------------
E-------------------------------------------

   Y amo lo que dices, lo que callas
e-------------------------------------------
B-------------------------------------------
G---4-4-4-4---5--6---4-4--5--6--------------
D-------------------------------------------
A-------------------------------------------
E-------------------------------------------
   Amo tus recuerdos tus olvidos
e---1-1-1-1---3--4---1-1--3--4--------------
B-------------------------------------------
G-------------------------------------------
D-------------------------------------------
A-------------------------------------------
E-------------------------------------------
   Amo tus olores, tus fragancias
e-------------------------------------------
B---1-1-1-1---3--4---1-1--3--4--------------
G-------------------------------------------
D-------------------------------------------
A-------------------------------------------
E-------------------------------------------
   Te amo en el beso y la distancia
e-------------------------------------------
B-------------------------------------------
G---2-2-2-2---3--4---2-2--3--4--------------
D-------------------------------------------
A-------------------------------------------
E-------------------------------------------

   Amo lo que amas yo te amo
e---5-5-5-5---7--8---5-5--7--8--------------
B-------------------------------------------
G-------------------------------------------
D-------------------------------------------
A-------------------------------------------
E-------------------------------------------
   Te amo por amor sin doble filo
e-------------------------------------------
B---5-5-5-5---7--8---5-5--7--8--------------
G-------------------------------------------
D-------------------------------------------
A-------------------------------------------
E-------------------------------------------
   Te amo y si pudiera no amarte
e-------------------------------------------
B-------------------------------------------
G---5-5-5-5---7--8---5-5--7--8--------------
D-------------------------------------------
A-------------------------------------------
E-------------------------------------------
   Sé que te amaría aún lo mismo
e-------------------------------------------
B-------------------------------------------
G---2-2-2-2---3--4---2-2--3--4--------------
D-------------------------------------------
A-------------------------------------------
E-------------------------------------------

   Y amo lo que amas, yo te amo
e---5-5-5-5---7--8---5-5--9--8--------------
B-------------------------------------------
G-------------------------------------------
D-------------------------------------------
A-------------------------------------------
E-------------------------------------------
   Te amo por amor a dar lo mío
e-------------------------------------------
B---5-5-5-5---7--8---5-5--7--8--------------
G-------------------------------------------
D-------------------------------------------
A-------------------------------------------
E-------------------------------------------
   Te amo con orgullo de quererte
e-------------------------------------------
B-------------------------------------------
G---5-5-5-5---6--7---5-5--6--7--------------
D-------------------------------------------
A-------------------------------------------
E-------------------------------------------
   Por que para amarte yo he nacido
e-------------------------------------------
B-------------------------------------------
G---2-2-2-2---3--4---2-2--3--4--------------
D-------------------------------------------
A-------------------------------------------
E-------------------------------------------

   Amo lo que seas y lo que puedas
e-------------------------------------------
B---5-5-5-5---6--7---5-5--6--7--------------
G-------------------------------------------
D-------------------------------------------
A-------------------------------------------
E-------------------------------------------
   Amo lo que afirmas, lo que niegas
e-------------------------------------------
B-------------------------------------------
G---5-5-5-5---6--7---5-5--6--7--------------
D-------------------------------------------
A-------------------------------------------
E-------------------------------------------
   Amo lo que dices, lo que piensas
e-------------------------------------------
B-------------------------------------------
G---3-3-3---4--5---3-3--4--5----------------
D-------------------------------------------
A-------------------------------------------
E-------------------------------------------
   Te amo en lo que mides, y lo que pesas
e---1-1-1-1---2--3---1-1--2--3--------------
B-------------------------------------------
G-------------------------------------------
D-------------------------------------------
A-------------------------------------------
E-------------------------------------------

  Y amo lo que atrapas, lo que dejas
e-------------------------------------------
B---1-1-1-1---2--3---1-1--2--3--------------
G-------------------------------------------
D-------------------------------------------
A-------------------------------------------
E-------------------------------------------
   Amo tu alegría y tus tristezas
e-------------------------------------------
B-------------------------------------------
G---1-1-1-1---2--3---1-1--2--3--------------
D-------------------------------------------
A-------------------------------------------
E-------------------------------------------
   Te amo en la carne y en el alma
e---6-6-6-6---7--8---6-6--7--8--------------
B-------------------------------------------
G-------------------------------------------
D-------------------------------------------
A-------------------------------------------
E-------------------------------------------
   Te amo en tus crisis y tus calmas
e-------------------------------------------
B-------------------------------------------
G---4-4-4-4---5--6---4-4--5--6--------------
D-------------------------------------------
A-------------------------------------------
E-------------------------------------------

   Amo lo que pides y reglas
e---5-5-5-5---6--7---5-5--6--7--------------
B-------------------------------------------
G-------------------------------------------
D-------------------------------------------
A-------------------------------------------
E-------------------------------------------
   Amo tus caricias, tus ofensas
e-------------------------------------------
B---5-5-5-5---6--7---5-5--6--7--------------
G-------------------------------------------
D-------------------------------------------
A-------------------------------------------
E-------------------------------------------
   Amo tus instantes y lo eterno
e-------------------------------------------
B-------------------------------------------
G---5-5-5-5---6--7---5-5--6--7--------------
D-------------------------------------------
A-------------------------------------------
E-------------------------------------------
   Te amo en tu cielo y en tu infierno
e-------------------------------------------
B-------------------------------------------
G---4-4-4-4---5--6---4-4--5--6--------------
D-------------------------------------------
A-------------------------------------------
E-------------------------------------------

   Y amo lo que amas, yo te amo
e---1-1-1-1---4--5---1-1--6--5--------------
B-------------------------------------------
G-------------------------------------------
D-------------------------------------------
A-------------------------------------------
E-------------------------------------------
   Te amo por amor sin doble filo
e-------------------------------------------
B---1-1-1-1---4---1-1---3--4---------------
G-------------------------------------------
D-------------------------------------------
A-------------------------------------------
E-------------------------------------------
   Te amo y si pudiera no amarte
e-------------------------------------------
B-------------------------------------------
G---1-1-1-1---2--3---1-1--2--3--------------
D-------------------------------------------
A-------------------------------------------
E-------------------------------------------
   Se que te amaría aún lo mismo
e-------------------------------------------
B-------------------------------------------
G---4-4-4-4---5--6---5--6-------------------
D-------------------------------------------
A-------------------------------------------
E-------------------------------------------

   Y amo lo que amas, yo te amo
e---1-1-1-1---4--5---1-1--6--5--------------
B-------------------------------------------
G-------------------------------------------
D-------------------------------------------
A-------------------------------------------
E-------------------------------------------
   Te amo por amor a dar lo mío
e-------------------------------------------
B---1-1-1-1---4---1-1---3--4---------------
G-------------------------------------------
D-------------------------------------------
A-------------------------------------------
E-------------------------------------------
   Te amo con orgullo de quererte
e-------------------------------------------
B-------------------------------------------
G---1-1-1-1---2--3---1-1--2--3--------------
D-------------------------------------------
A-------------------------------------------
E-------------------------------------------
   Por que para amarte yo he nacido
e-------------------------------------------
B-------------------------------------------
G---4-4-4-4---5--6---5--6-------------------
D-------------------------------------------
A-------------------------------------------
E-------------------------------------------

Bueno, la canción está bien padre y muy fácil de sacar, 
solo hay que seguirle un poco el ritmo y nada más. Espero que les haya ayudado en algo.
Así que cualquier duda o corrección a mi mail: billy_6cuerdas@hotmail.com
Este fichero es trabajo propio de su transcriptor y representa su interpretación personal de la canción. El material contenido en esta página es
para exclusivo uso privado, por lo que se prohibe su reproducción o retransmisión, así como su uso para fines comerciales.

© LaCuerda.net · Aviso Legal · Privacidad