Acordes de Guitarra » A »Aventura » Su Veneno (Tab)

Su Veneno
Aventura

Letras, Acordes y Tabs para Guitarra, Bajo y Ukulele

  • INTRO: Am - Dm - G - C-E7-Am
    
    
                       Am
    En el proceso de dejarla, de mi vida arrancarla,
           A7          Dm
    vuelve a pedir perdón uoh uoh uohh
                        G
    Me someto a los instintos, convenciéndome sus gestos,
    G7                     C      E7      Am
      y mi juicio es el error uoh uoh uohh...
    
         F                            G
    Tal vez... Mi futuro está en sus manos
                        C         E7         Am
    y si acaso es un pecado, ¿qué le voy a hacer?
    F                             G
    No se... ¿cómo puede ser tan bella,
                      C            E7       Am
    y a la vez envenenarme con su dosis de hiel?...
    
  •                                 Am
    
    E||-12-12-12-12s10--10-10s8--8-|-10s12----12-12-12-12s10--10-10s8--8---|
    B||----------------------------|---------------------------------------|
    G||----------------------------|---------------------------------------|
    D||----------------------------|---------------------------------------|
    A||----------------------------|---------------------------------------|
    E||----------------------------|---------------------------------------|
    
       Dm
    
    |-12s13----13-13-13-13s12--12-12s10--10--|
    |----------------------------------------|
    |----------------------------------------|
    |----------------------------------------|
    |----------------------------------------|
    |----------------------------------------|
    
    
      G
    
  •                                 Am
    
    E||-12-12-12-12s10--10-10s8--8-|-10s12----12-12-12-12s10--10-10s8--8---|
    B||----------------------------|---------------------------------------|
    G||----------------------------|---------------------------------------|
    D||----------------------------|---------------------------------------|
    A||----------------------------|---------------------------------------|
    E||----------------------------|---------------------------------------|
    
       Dm
    
    |-12s13----13-13-13-13s12--12-12s10--10--|
    |----------------------------------------|
    |----------------------------------------|
    |----------------------------------------|
    |----------------------------------------|
    |----------------------------------------|
    
    
      G
    
  •                                           Am
    e||---------12-12-12-12-------------|----------------12-12-12-12----------|
    B||----------------------13---12-13-|--12------------------------13-12-13-|
    G||---------------------------------|------14-----------------------------|
    D||---------------------------------|-------------------------------------|
    A||---------------------------------|-------------------------------------|
    E||---------------------------------|-------------------------------------|
    
    
       A7
    |-------------------------------------|
    |--12---------------------12----12-13-|
    |------14--------14-14-14----14-------|
    |-------------------------------------|
    |-------------------------------------|
    |-------------------------------------|
    
    
       Dm
    |----------------13-12----------------------|
    
  • +
    ¡Colabora con nosotros!
    Envíanos tu versión de esta canción

Letra de Su Veneno
En el proceso de dejarla, de mi vida arrancarla,
vuelve a pedir perdón uoh uoh uohh
Me someto a los instintos, convenciéndome sus gestos,
y mi juicio es el error uoh uoh uohh...
Tal vez... Mi futuro está en sus manos
y si acaso es un pecado, ¿qué le voy a hacer?
No se... ¿cómo puede ser tan bella,
y a la vez envenenarme con su dosis de hiel?...
Ay.. ella tiene un tóxico agridulce,
la sustancia de este amor...
tiene el control...
Suu-mal-dito veneno que viene en frasco de besos
en botesitos de miel,
me engatusa el sentido, soy un iluso perdido
que vende el alma por la sensatez,
por - suu - maal - dito veneno esto se va a poner feo
y va verán lo que haré...
voy a jugarme con fuego, a derretir este hielo
no moriré por una mujer....
INTERMEDIO:
[En la pequeña figura justo antes del precoro]
Tal vez... Mi futuro está en sus manos
y si acaso es un pecado, ¿qué le voy a hacer?
No se... ¿cómo puede ser tan bella,
y a la vez envenenarme con su dosis de hiel?...
Ella tiene un tóxico agridulce,
la sustancia de este amor...
tiene el control...
Suu-mal-dito veneno que viene en frasco de besos
en botesitos de miel,
me engatusa el sentido, soy un iluso perdido
que vende el alma por la sensatez,
por - suu - maal - dito veneno esto se va a poner feo
y va verán lo que haré...
voy a jugarme con fuego, a derretir este hielo
no moriré por una mujer....
Su maldito veneno que viene en frasco de besos
en botesitos de miel,
me engatusa el sentido, soy un iluso perdido
que vende el alma por la sensatez,
por - suu - maal - dito veneno esto se va a poner feo
y va verán lo que haré...
Voy a jugarme con fuego...
a derretir este hielo... no moriré...
..por una mujer.
by:
*[The LiRoMaN]*
<- eLeKtRiK DrEaMeR ->
Saludos desde Acapulco :P
[ http://www.metroflog.com/LiRoMaN ] ;D




[Su Veneno chords][Su Veneno cifra]
© LaCuerda.net · aviso legal · privacidad · es · en · pt · contacto