Acordes de Guitarra » A »Aventura » Obsesión (Tab)

Obsesión
Aventura

Letras, Acordes y Tabs para Guitarra, Bajo y Ukulele

  •                C#m                        G#m 
    e]---------4-----------4-------||----4-----------4-----|
    B]-------5---5-------5---5-----||--4---4-------4---4---|
    G]-----6-------6---6-------6---||4-------4---4------4--|
    D]---6-----------6-----------6-||----------6---------6-|
    A]-----------------------------||----------------------|
    E]-----------------------------||----------------------|
    tocar dos veces, luego:
    
                  C#m                            G#m 
    e]---------4-----------4------||----4-----------4-------4-|
    B]-------5---5-------5---5----||--4---4-------4---4----4--|
    G]-----6-------6---6-------6--||4-------4---4------4--4---|
    D]---6-----------6-----------6||----------6---------6-----|
    A]----------------------------||--------------------------|
    E]----------------------------||--------------------------|
    
           A                   C#m
    Son las 5 de la mañana y yo no he dormido nada
     A                   C#m
    
  • C#m - G#m ( BIS)
    
        A                   C#m
    Son las 5 de la mañana y yo no he dormido nada
       A                   C#m
    pensando en tu belelza y en loco voy a parar
     A                   C#m
    el imsonnio es mi castigo tu amor sera mi alivio
       A                   C#m
    y hasta que no seas mia no vivire jamas
       A                   C#m
    yo conoci tu novio, pequeño y no buenmozo
      A                   C#m
    y se que el no te quiere por su forma de hablar
       A                   C#m
    y ademas tu no lo amas por que el no da la talla
     A                 C#m
    no sabe complacerte como lo haria yo
     A                   C#m
    pero tendre paciencia porque uno es competencia
    
  •     Am                                                 Em
    |-------0---------|----------0------|--------0--------|---------0-------||
    |-----1---1---1---|-------1---1-----|------0---0---0--|-------0---0-----||
    |---2-------2---2-|-----2--------2--|----0-------0--0-|-----0-------0---||:
    |-----------------|---2-----------2-|--2--------------|---2-----------2-||
    |-0---------------|-0---------------|-----------------|-----------------||
    |-----------------|-----------------|-0---------------|-0---------------||
    
           F                  Am             F                   Am
    |-----------1------|-----------------|------1-3p1------|---0-----3--0----|
    |--------1-----1---|-----1--3p1---1--|-----1-------1---|-----1--------1--|
    |------2---2--2-2--|---2--------2----|---2--- ---2---2-|-------2---------|
    |-23-3-------------|-2-----2-------2-|-3---------------|-2---------------|
    |------------------|-----------------|-----------------|-----------------|
    |------------------|-----------------|-----------------|-----------------|
    
           F                  Am             F                  Am
    |---1-----5p1-3p1--|---0-------------|-----------------|-----------------|
    |------1-----1---1-|-----1---3----1--|-----1-3p1--0101-|-----1-3p1---1---|
    |-------2----------|-----------2-----|---2--2----2-----|---2-------2-----|
    
  • +
    ¡Colabora con nosotros!
    Envíanos tu versión de esta canción

Letra de Obsesión
Son las 5 de la mañana y yo no he dormido nada
pensando en tu belelza y en loco voy a parar
el imsonnio es mi castigo tu amor sera mi alivio
y hasta que no seas mia no vivire jamas
yo conoci tu novio, pequeño y no buenmozo
y se que el no te quiere por su forma de hablar
y ademas tu no lo amas por que el no da la talla
no sabe complacerte como lo haria yo
pero tendre paciencia porque uno es competencia
por eso me motivas para yo (no entiendo lo que dice aqui).
No Ohhhhh, no es amor, lo que tu sientes
se llama obsesion
Una ilusion en tu pensamiento que te hace hacer cosas
asi funciona el corazon.
Y envestido ayer en mi Lexus pase por tu colegio
y la forma en que te fuiste como loco te fui a alcanzar
te busque y no te encontraba y eso me preocupaba
para calmar mi ansias yo te queria llamar
pero no tenia tu numero, tu familia ya me lo nego
ser bonito mucho me ayudo, eso me trajo la solucion
yo se que le gustaba y le di una mirada
con par de palabritas tu numero me dio
del celular llamaba y tu no contestaba
luego te puse un bepper y no habia conecion
mi unica esperanza es que oigas mis palabras
NO PUEDO TENGO NOVIO, escuchame por favor.
NOhhhhh, no es amor, lo que tu sientes
se llama obsesion
Una ilusion en tu pensamiento que te hace hacer cosas
asi funciona el corazon.
deben de tocarlo en triadas desde el 9no. traste en adelante.




[Obsesión chords][Obsesión cifra]
© LaCuerda.net · aviso legal · privacidad · es · en · pt · contacto
DINAMICO