Acordes de Guitarra » A »Aventura » Cuando Volverás (Tab)

Cuando Volverás
Aventura

Letras, Acordes y Tabs para Guitarra, Bajo y Ukulele

  •          SIm                    SOL 
    I dunno what's going on with my baby
                        LA 
    que ya no me quiere ver
                                SIm
    she doesn't want to talk to me.
    
    She left an early morning without reason
    sin dejarme una cartita 
    or a clue where she might be at.
    
    I don't think that I deserve what you have done
    i don't sleep at night
    and I don't eat esperando for your love.
    
    SIm                    SOL 
    Cuándo volverás, when will you come back
            LA                  SIm
    ay dime mami a donde tu estarás.
    When will you come back, cuándo volverás
    
  •          SIm                    SOL 
    No se lo que me pasa con mi mami
                        LA 
    que ya no me quiere ver
                                SIm
    ya no me quiere hablar.
    
    Se fue una mananita sin motivos
    
    sin dejarme una cartita 
    
    ni una sena de donde estaras.
    
    
    No meresco lo que me hiciste morena
    
    ya no como ya no duermo 
    
    esperando tu regreso hay Dios
    SIm                    SOL 
    
  •        Cm                 G#                A#
    e-|-O-|---|---|-     e-|-0-|---|---|-      e-|-0-|---|---|-
    B-|---|-O-|---|-     B-|-0-|---|---|-      B-|-0-|---|---|-
    G-|---|---|-O-|-     G-|---|-0-|---|-      G-|---|-0-|---|-
    D-|---|---|-O-|-     D-|---|---|-0-|-      D-|---|---|-0-|-
    A-|-O-|---|---|-     A-|---|---|-0-|-      A-|---|---|-0-|-
    E-|---|---|---|X     E-|-0-|---|---|-      E-|-0-|---|---|-
       3   4   5         4   5   6           6   7   8
    
    Intro:
                      Cm                          G#
    E|-13-13-11-11--------11h13-11--13-13-11-11-------11h13-11-----
    B|------------------13--------------------------13-------------
    G|----------------12--------------------------13---------------
    D|-------------------------------------------------------------
    A|-------------------------------------------------------------
    E|-------------------------------------------------------------
                     A#                          Cm                  x2
    E|-15-15-13-13-------13h15-13--18-18-18-15-20------15----------|
    B|-----------------15------------------------------------------|
    
  • [Cm, Ab, Bb, Cm] Estos acordes se repiten durante la cancion entera
    
    
    Intro:
    
                     | Cm  |                         | Ab  |
    
    E|-13-13-11-11--------11h13-11--13-13-11-11-------11h13-11-----
    B|------------------13--------------------------13-------------
    G|----------------12--------------------------13---------------
    D|-------------------------------------------------------------
    A|-------------------------------------------------------------
    E|-------------------------------------------------------------
                     | Bb   |                         | Cm  |
    
    E|-15-15-13-13-------13h15-13--18-18-18-15-20------11----------|
    B|-----------------15------------------------------13----------|
    G|---------------15--------------------------------12----------|
    D|-------------------------------------------------------------|
    A|-------------------------------------------------------------|
    
  • +
    ¡Colabora con nosotros!
    Envíanos tu versión de esta canción

Letra de Cuando Volverás
I dunno what's going on with my baby
que ya no me quiere ver
she doesn't want to talk to me.
She left an early morning without reason
sin dejarme una cartita
or a clue where she might be at.
I don't think that I deserve what you have done
i don't sleep at night
and I don't eat esperando for your love.
Cuándo volverás, when will you come back
ay dime mami a donde tu estarás.
When will you come back, cuándo volverás
dime morena ay a donde andarás.
Chorus:
Tell me why tell me why
me haces esto mujer
if i aways loved you
ven y vuelve otra vez.
'Let me find out... Oye que feeling mami'
My heart is in pain and I need your love
oh please call the doctor
y que vuelva mi morena.
I miss her day and night
nothing has changed
and the only thing i have is on the wall her pictured frame.
Cuándo volverás, when will you come back
ay dime mami a donde tu andarás.
When will you come back, cuándo volverás
ay dime baby if you're ever coming back.
Tell me why tell me why
me haces esto mujer
if i aways loved you
ven y vuelve otra vez.
Tell me why tell me why
You are doing this to me
if i always loved you
ven y vuelve otra vez.
'uuuhhh, when are you going to come back boo, you know I stay missing you.'
Cuando volverás,
cuando volverás,
cuando volverás,
cuando volverás ...
you know I love you,with all my love
and now i miss you, with all my heart
'cause you're my baby, you'r my heart..'
Cuando volverás,Cuando volverás ... aaaaahhhh .... ¡Morena!




[Cuando Volverás chords][Cuando Volverás cifra]
© LaCuerda.net · aviso legal · privacidad · es · en · pt · contacto