Acordes de Guitarra » A »Aventura » Sólo por un beso (Tab)

Sólo por un beso
Aventura

Letras, Acordes y Tabs para Guitarra, Bajo y Ukulele

  • e|-------------------------0----------------------------------|
    B|-------3-3-3-3-3-3-3/6-3----------------------------0-------|
    G|-----0--------------------------2-2-2-2-2-2-2-2/5-2---------|
    D|------------------------------0-----------------------------|
    A|---3--------------------------------------------------------|
    E|----------------------------3-------------------------------|
    
    e|--15p0-0----13p0-0----12p0-0----10p0-0---------|------0--------|
    B|----------------------------------------------·|-----1-1-------|
    G|------------------------------------------(3x)·|----0---0------|
    D|---------14--------14--------12--------14-----·|---2-----2-----|
    A|-----------------------------------------------|--3-------3----|
    E|-----------------------------------------------|-3---------3---|
    
     Hay una mujer!
    
    e|---------------------------------7-8-------0h8p0h8p0h8p0h8p0h8p0h8p0----|
    B|----------------------------8-10------6-5-------------------------------|
    G|---------------------7-9-10---------------------------------------------|
    D|--------------7-9-10----------------------------------------------------|
    
  • e -----------------------|
    B ----3-3-3-3-3-3-3-6-3-5|
    G ----0------------------|
    D -----------------------|
    A 3----------------------|
    E -----------------------|
    
    e -----------------------|
    B -----------------------|
    G ----2-2-2-2-2-2-2-5-2-4|
    D ----0------------------|
    A -----------------------|
    E 3----------------------|
    
    e 15--0--13--0--12-0--10--0---15--0--13--0--12-0--10--0
    B -----------------------------------------------------
    G -----------------------------------------------------
    D 14-14--14-14-14-14--12-12---14-14--14-14-14-14--12-12
    A -----------------------------------------------------
    E -----------------------------------------------------
    
  • +
    ¡Colabora con nosotros!
    Envíanos tu versión de esta canción

Letra de Sólo por un beso
Hay una mujer!
Que domina mis sentidos con solo tocar mi piel
Y como a mí también
a otro hombre esto le puede sucerder
|===========Tremulo==============|
Que solo por un beso
Se puede enamorar
Sin necesidad de hablarse
Cupido los flechara
Y solo por un beso
Con ella soy feliz
Tan solo con un besito
Me llevo al infinito
Y ni siquiera la conozco bien
Un beso significa amistad, sexo y amor
En cualquier parte del mundo no importa la religión
Por un beso de su boca voy al cielo y hablo con dios
Alcanzo las estrellas de emoción
Su boca es tan sensual
Me cautiva Y me excita no me canso de besar
Su lengua es mi debilidad
Ella sabe los truquitos díganme si hay alguien mas
Que solo por un beso
Se puede enamorar
Sin necesidad de hablarse solo los labios rozarse
cupido los flechara
Y solo por un beso
Con ella soy feliz
Tan solo con un besito me llevo al infinito
y ni siquiera la conozco bien
Un beso significa
Amistad, sexo y amor
En cualquier parte del mundo no importa la religión
Por un beso de tu boca boy al cielo y hablo con dios
Alcanzo las estrellas de emoción
etc etc
Correcciones preguntas dudas o cualquier cosa del tabs
me pueden escribir a augusto_vaughan@hotmail.
* * ***** ******* *** ***** *****
* * * * * * * ** * *
* * * * * * * * * * * * *
* * * * * * * * * * * * * *
* * * * * * * * * * * * *
* * * * ** * * ** * *
*** *** ***** **** ***** ***** ***** *




[Sólo por un beso chords][Sólo por un beso cifra]
© LaCuerda.net · aviso legal · privacidad · es · en · pt · contacto