Tablatura para Bajo de Attaque 77: La gente que habla sola
Conexión · Inscripción
Letras y Acordes
Pantalla Completa
Imprimir
Versión Texto
Añadir Favorito
Otras Versiones

Mostrar Diagramas
Desfile Automático
Formato del Texto


La gente que habla sola(BAJ)

Attaque 77

calidad:
at771443
AUTOR: Pertusi
ALBUM: Antihumano (2003)
Enviado por Julio
La gente que Habla sola
Attaque 77

 Intro
G--------------|----
D-----7-5-3-5--|----
A--------------|----
E--------------|--1-

 Verso 1 (x3)
G--------------5-------------------------------5------------------
D-----------------------------------------------------------------
A-0h3--0h3-0h3---3----------------0h3--0h3-0h3---3----------------
E------------------0h1--0h1-0h1-0------------------0h1--0h1-0-1-0-

G--------------5--------------------5-5-5-5-5-5-5-5-----------------
D---------------------------------------------------3-3-3-3-3-3-3-3-
A-0h3--0h3-0h3---3----------------3/--------------------------------
E------------------0h1--0h1-0h1-0-----------------------------------

 Coro
G---------------------------------------------------------------------
D---------------------------------------------------------------------
A---------------------------3-------------------------------5-3---3---
E-1-1-1-1-1-1-1-1-3-3-3-3-3---5-5-3-3-1-1-1-1-1-1-1-1-3-3-3-----3---3-

 Verso 2 (x2)
G---------------------------------------------------------------
D---------------------------------------------------------------
A-3-3-3-3-3-3-3-----------------3-3-3-3-3-3-3-3-----------------
E---------------1-1-1-1-1-1-1-1-----------------1-1-1-1-1-1-1-1-

 (Parte reggae del verso) "Sergio vive en brasil..."
G---------------------------------------
D---5-5-5------5-5-5--------------------
A-0----------0--------------------------
E---------3----------3-0h1-0h1-0-1-0/-8-

 ("Solo para ver, para compartir...")
G---------------------------------
D---------------------------------
A-----------------8-8-8-8-8-8-8-8-
E-8-8-8-8-8-8-8-8-----------------

 Coro
G---------------------------------------------------------------------
D---------------------------------------------------------------------
A---------------------------3-------------------------------5-3---3---
E-1-1-1-1-1-1-1-1-3-3-3-3-3---5-5-3-3-1-1-1-1-1-1-1-1-3-3-3-----3---3-

 ("y un ejercito de gente...")
G---5-5-5-5-5-5-5-5-------------------5-5-5-5-5-5-5-5-----------------
D---------------------------------------------------------------------
A-3---------------------------------3---------------------------------
E-------------------1-1-1-1-1-1-1-1-------------------1-1-1-1-1-1-1-1-

 ("Historias de no correspondidos...")
G----------------------------------
D----------------------------------
A-0h5-5-0h5-0h5-5----2-3-5---2-3-5-
E------------------3-------3-------

 ("De gente que habla sola...")
G---------------------------------------
D---------------------------5--3--2-3-5-
A-0h5-5-0h5-0h5-5---3---5-3-------------
E-----------------3---3-----------------

 Solo x3                            x1
G---------------------------------|---------------------------------
D-----------------3-3-3-3-3-2-3-2-|---------------------------------
A-3-3-3-3-3-3-3-3-----------------|-3-3-3-3-3-3-3-3-----------------
E---------------------------------|-----------------1-1-1-1-1-1-1-1-

 ("Pienso en vos estés en donde estés...") x4
G-----5-5-5-5-5-5--------------------------
D------------------------------------------
A-3-3--------------------------------------
E-----------------1-1--1-1-1--1-1-1--1-1-1-

 ("All you need is love...") x2
G---------------------------------
D---------------------------------
A-3-3-3-3-3-3-3-3-----------------
E-----------------1-1-1-1-1-1-1-1-

G----------------5-5-5---
D------------------------
A-3---------3------------
E------1---------------1-

 Final
G--5-----5-----------------------5-5-5-5---
D----5-----5-----3-------------------------
A-3----3-----------------3-3-3-3-----------
E------------1-1---1-1-3-----------------1-
Este fichero es trabajo propio de su transcriptor y representa su interpretación personal de la canción. El material contenido en esta página es
para exclusivo uso privado, por lo que se prohibe su reproducción o retransmisión, así como su uso para fines comerciales.

© LaCuerda.net · Aviso Legal · Privacidad