Tablatura para Bajo de Aterciopelados: Florecita Rockera
Conexión · Inscripción
Letras y Acordes
Pantalla Completa
Imprimir
Versión Texto
Añadir Favorito
Otras Versiones

Mostrar Diagramas
Desfile Automático
Formato del Texto


Florecita Rockera(BAJ)

Aterciopelados

calidad:
ater0124
AUTOR: A. Echeverry & Hector Buitrago
ALBUM: El Dorado (1995)
Enviado por manuel
manuel leon
intro

G||---------------------------|---------------------------|
D||---------------------------|---------------------------|
A||---------------------------|-------------3--3----------|
E||--3---3-3-3--3--3--3-3--3--|--3---3-3-3----------------|

---------------------------|---------------------------|
---------------------------|---------------------------|
---------------------------|-------------3--3--3-3--3--|
--3---3-3-3--3--3--3-3--3--|--3---3-3-3----------------|

versos

como hechas de flores, si eres un jardin....

---------------------------|---------------------------|
---------------------------|---------------------------|
---------------------------|-------------3--3--3-3--3--| (x2)
--3---3-3-3--3--3--3-3--3--|--3---3-3-3----------------|

florecita roquera tu te lo buscaste.....

----------------------------|-----------------------------|
----------------------------|-----------------------------|
---------3-1----------3--1--|---------3-1--3--3-----------|  (x2)
--3--3-0------3--3--0-------|--3--3-0-----------1-1-1--1--|

verso

---------------------------|---------------------------|
---------------------------|---------------------------|
---------------------------|-------------3--3--3-3--3--| (x2)
--3---3-3-3--3--3--3-3--3--|--3---3-3-3----------------|

----------------------------|-----------------------------|
----------------------------|-----------------------------|
---------3-1----------3--1--|---------3-1--3--3-----------|  (x2)
--3--3-0------3--3--0-------|--3--3-0-----------1-1-1--1--|

---------------------------|---------------------------|
---------------------------|---------------------------|
---------------------------|-------------3--3--3-3--3--| (x2)
--3---3-3-3--3--3--3-3--3--|--3---3-3-3----------------|

----------------------------|-----------------------------|
----------------------------|-----------------------------|
---------3-1----------3--1--|---------3-1--3--3-----------|  (x2)
--3--3-0------3--3--0-------|--3--3-0-----------1-1-1--1--|

-----------------------------|-----------------------------|
-----------------------------|-----------------------------|
----------------5------5-----|---------------5-------5-----|  (5)
--3------3-------------------|--3------3-------------------|

-----------------------------|----------------------------|
-----------------------------|----------------------------|
---------------5-------5-----|---------3-1----------3--1--|
--3------3-------------------|--3--3-0------3--3--0-------|

----------------------------|-----------------------------|
----------------------------|-----------------------------|
---------3-1----------3--1--|---------3-1--3--3-----------|  (x8)
--3--3-0------3--3--0-------|--3--3-0-----------1-1-1--1--|

-----------------------------|-------------------|--------------------||
-----------------------------|-------------------|--------------------||
---------3-1--3--3-----------|-------------------|--------------------||
--3--3-0-----------1-1-1--1--|--3----------------|--3-----------------||
Este fichero es trabajo propio de su transcriptor y representa su interpretación personal de la canción. El material contenido en esta página es
para exclusivo uso privado, por lo que se prohibe su reproducción o retransmisión, así como su uso para fines comerciales.

© LaCuerda.net · Aviso Legal · Privacidad