Tablatura para Bateria de Aterciopelados: Florecita Rockera
Conexión · Inscripción
Letras y Acordes
Pantalla Completa
Imprimir
Versión Texto
Añadir Favorito
Otras Versiones

Mostrar Diagramas
Desfile Automático
Formato del Texto


Florecita Rockera(BAT)

Aterciopelados

calidad:
ater0123
AUTOR: A. Echeverry & Hector Buitrago
ALBUM: El Dorado (1995)
Enviado por c|-|risti/-
                         Florecita Rockera - Aterciopelados


ESPERO QUE LES GUSTE, AQUI LO SEPARE POR COMPASES PARA QUE CHEQUEN EL 
ORDEN DE LA CANCION QUE ESTA COMPLETA.





C||--42--42--42--42--42--42--42--42--|--42--42--42--42--42--46--42--42--|
C||--35------37--35--35------37--35--|------35--37--35--35------37------|
C||----------------------------------|----------------------------------|
C||----------------------------------|----------------------------------|
C||----------------------------------|----------------------------------|
C||----------------------------------|----------------------------------|



--42--42--42--42--42--42--42--42--|--42--42--42--42--42--46--42--42--|
--35------37--35--35------37--35--|------35--37--35--35------37------|
----------------------------------|----------------------------------|
----------------------------------|----------------------------------|
----------------------------------|----------------------------------|
----------------------------------|----------------------------------|



--42--42--42--42--42--42--42--42--|--42--42--42--42--42--46--42--42--|
--35------37--35--35------37--35--|------35--37--35--35------37------|
----------------------------------|----------------------------------|
----------------------------------|----------------------------------|
----------------------------------|----------------------------------|
----------------------------------|----------------------------------|



--42--42--42--42--42--42--42--42--|--42--42--42--42--42--46--42--42--|
--35------37--35--35------37--35--|------35--37--35--35------37------|
----------------------------------|----------------------------------|
----------------------------------|----------------------------------|
----------------------------------|----------------------------------|
----------------------------------|----------------------------------|



--42--42--42--42--42--42--42--42--|--42--42--42--42--42--46--42--42--|
--35------37--35--35------37--35--|------35--37--35--35------37------|
----------------------------------|----------------------------------|
----------------------------------|----------------------------------|
----------------------------------|----------------------------------|
----------------------------------|----------------------------------|



--42--42--42--42--42--42--42--42--|--42--42--42--42--42--46--42--42--|
--35------37--35--35------37--35--|------35--37--35--35------35--38--|
----------------------------------|--------------------------50--49--|
----------------------------------|--------------------------45--50--|
----------------------------------|------------------------------45--|
----------------------------------|----------------------------------|



--46----46--36--46----46--36--|--46--36--46--35--46----------46----------|
--36----38------36----35------|----------38------36----------38----------|
--49----------------------49--|------------------38-38-50-50-49----------|
------------------------------|------------------------------38-38-50-50-|
------------------------------|------------------------------------------|
------------------------------|------------------------------------------|



--46----46--36--46----46--36--|--46--36--46--35--46--38--46-38-50--|
--36----38------36----38------|----------38------36------38--------|
--49----------------------49--|--------------49--------------------|
------------------------------|------------------------------------|
------------------------------|------------------------------------|
------------------------------|------------------------------------|

CORO:

--46----46--36--46----46--36--|--46--36--46--35--46----------46----------|
--36----38------36----38------|----------38------36----------38----------|
--49----------------------49--|------------------38-38-50-50-49----------|
------------------------------|------------------------------38-38-50-50-|
------------------------------|------------------------------------------|
------------------------------|------------------------------------------|



--46----46--36--46----46--36--|--46--36--46--35--46--38--46-38-50--|
--36----38------36----38------|----------38------36------38--------|
--49----------------------49--|--------------49--------------------|
------------------------------|------------------------------------|
------------------------------|------------------------------------|
------------------------------|------------------------------------|



--42--42--42--42--42--42--42--42--|--42--42--42--42--42--46--42--42--|
--35------37--35--35------37--35--|------35--37--35--35------37------|
----------------------------------|----------------------------------|
----------------------------------|----------------------------------|
----------------------------------|----------------------------------|
----------------------------------|----------------------------------|



--42--42--42--42--42--42--42--42--|--42--42--42--42--42--46--42--42--|
--35------37--35--35------37--35--|------35--37--35--35------37------|
----------------------------------|----------------------------------|
----------------------------------|----------------------------------|
----------------------------------|----------------------------------|
----------------------------------|----------------------------------|



--42--42--42--42--42--42--42--42--|--42--42--42--42--42--46--42--42--|
--35------37--35--35------37--35--|------35--37--35--35------37------|
----------------------------------|----------------------------------|
----------------------------------|----------------------------------|
----------------------------------|----------------------------------|
----------------------------------|----------------------------------|



--42--42--42--42--42--42--42--42--|--42--42--42--42--42--46--42--42--|
--35------37--35--35------37--35--|------35--37--35--35------37------|
----------------------------------|----------------------------------|
----------------------------------|----------------------------------|
----------------------------------|----------------------------------|
----------------------------------|----------------------------------|



--46----46--36--46----46--36--|--46--36--46--35--46----------46----------|
--36----38------36----35------|----------38------36----------38----------|
--49----------------------49--|------------------38-38-50-50-49----------|
------------------------------|------------------------------38-38-50-50-|
------------------------------|------------------------------------------|
------------------------------|------------------------------------------|



--46----46--36--46----46--36--|--46--36--46--35--46--38--46-38-50--|
--36----38------36----38------|----------38------36------38--------|
--49----------------------49--|--------------49--------------------|
------------------------------|------------------------------------|
------------------------------|------------------------------------|
------------------------------|------------------------------------|


CORO:

--46----46--36--46----46--36--|--46--36--46--35--46----------46----------|
--36----38------36----35------|----------38------36----------38----------|
--49----------------------49--|------------------38-38-50-50-49----------|
------------------------------|------------------------------38-38-50-50-|
------------------------------|------------------------------------------|
------------------------------|------------------------------------------|



--46----46--36--46----46--36--|--46--36--46--35--46--38--46-38-50--|
--36----38------36----38------|----------38------36------38--------|
--49----------------------49--|--------------49--------------------|
------------------------------|------------------------------------|
------------------------------|------------------------------------|
------------------------------|------------------------------------|



--46----46--36--46----46--36--|--46--36--46--35--46----------46----------|
--36----38------36----35------|----------38------36----------38----------|
--49----------------------49--|------------------38-38-50-50-49----------|
------------------------------|------------------------------48-48-47-47-|
------------------------------|------------------------------------------|
------------------------------|------------------------------------------|



--46----46--36--46----46--36--|--46--36--46--35--46--38--46-38-50--|
--36----38------36----38------|----------38------36------38--------|
--49----------------------49--|--------------49--------------------|
------------------------------|------------------------------------|
------------------------------|------------------------------------|
------------------------------|------------------------------------|



--37----42--42--37------42--42--|--37------42--42--37----42--42--|
------------60------60------60--|--61--61------60------------60--|
--------------------------------|--------------------------------|
--------------------------------|--------------------------------|
--------------------------------|--------------------------------|
--------------------------------|--------------------------------|



--37------42--42--37------42--42--|--37----42--42--37------42--42--|
--61--61------60------60------60--|------------60------60------60--|
----------------------------------|--------------------------------|
----------------------------------|--------------------------------|
----------------------------------|--------------------------------|
----------------------------------|--------------------------------|



--37------42--42--37----42--42--|--37------42--42--37------42--42--|
--61--61------60------------60--|--61--61------60------60------60--|
--------------------------------|----------------------------------|
--------------------------------|----------------------------------|
--------------------------------|----------------------------------|
--------------------------------|----------------------------------|



--37----42--42--37------42--42--|--37------42--42--37----42--42--|
------------60------60------60--|--61--61------60------------60--|
--------------------------------|--------------------------------|
--------------------------------|--------------------------------|
--------------------------------|--------------------------------|
--------------------------------|--------------------------------|



--37------42--42--37------42--42--|--37----42--42--37------42--42--|
--61--61------60------60------60--|------------60------60------60--|
----------------------------------|--------------------------------|
----------------------------------|--------------------------------|
----------------------------------|--------------------------------|
----------------------------------|--------------------------------|



--37------42--42--37----42--42--|--37------42--42--37------42--42--||
--61--61------60------------60--|--61--61------60------60------60--||
--------------------------------|----------------------------------||
--------------------------------|----------------------------------||
--------------------------------|----------------------------------||
--------------------------------|----------------------------------||


PARA DUDAS Y/O COMENTARIOS - acorde_49@hotmail.com - anarchy_up@atame.org -
Este fichero es trabajo propio de su transcriptor y representa su interpretación personal de la canción. El material contenido en esta página es
para exclusivo uso privado, por lo que se prohibe su reproducción o retransmisión, así como su uso para fines comerciales.

© LaCuerda.net · Aviso Legal · Privacidad