Acordes de Guitarra » A »Asesino » Regresando Odio (Tab)

Regresando Odio
Asesino

Letras, Acordes y Tabs para Guitarra, Bajo y Ukulele

  • Dino Cazares es un músico mexicano¡¡¡¡¡¡¡¡¡
    
    
    NOTA:
    
    Espero y te ayude en algo esta tab.
    Si necesitas una tab en especial, escríbeme o visita...
    
    *******************************************
    * http://www.myspace.com/alejandrolauyola *
    *******************************************
    
    - Revisa la afinación de esta canción en especial (7 cuerdas)
    - Pon atención a las instrucciones que están al final
    - contiene las 2 guitarras
    - CALIFICA SOLO SI LEÍSTE "EL MANUAL"-
    
    ------------------------guitarra 1-----------------------
          S S S S S S E   E    S  Q     S
    C#||-----------------16s--15-15~------|
    G#||----------------------------------|
    E ||-----------------13---13-13-------|
    B ||----------------------------------|
    F#||--4-4-4-4-4-4---------------------|
    C#||--4-4-4-4-4-4---------------------|
    F#||--4-4-4-4-4-4---------------------|
    
    
      S S S S S S E   E    S  Q     S    S S S S S S E   E    S  Q     S
    -----------------16s--15-15~------|-----------------16s--15-15~------|
    ----
  • +
    ¡Colabora con nosotros!
    Envíanos tu versión de esta canción



Video de Regresando Odio
[]




[Regresando Odio chords][Regresando Odio cifra]
© LaCuerda.net · aviso legal · privacidad · es · en · pt · contacto