Acordes de Guitarra » A »Asesino » Misas Negras (Tab)

Misas Negras
Asesino

Letras, Acordes y Tabs para Guitarra, Bajo y Ukulele

  • C |---------------------------------------|
    G |---------------------------------------|
    D#|---------------------------------------|
    Bb|-5-4-----------7-5----------7-5--------|
    F |-5-4-----------7-5----------7-5--------|
    C |-3-2-----------5-3----------5-3--------|
        Quiero putas, rateros y drogadictos
        La misa necesita sangre podrida
    
    C |----------------------------------------------|
    G |----------------------------------------------|
    D#|----------------------------------------------|
    Bb|-5-4--5-4--5-4--5-4--7-7-77-5-5-5-7-7-7-5-5-5-|
    F |-5-4--5-4--5-4--5-4--7-7-77-5-5-5-7-7-7-5-5-5-|
    C |-3-2--3-2--3-2--3-2--5-5-55-3-3-3-5-5-5-3-3-3-|
        Elpoderquetengoledoygraciasalreyprendelasvelasytraeelmachete
        Mi padre negro espera su sacrificio
        Los animales no ayudan, búscame gente...Hechicero
        sin pito, pobrecito, Tu alma no se escapa
    
    
  • +
    ¡Colabora con nosotros!
    Envíanos tu versión de esta canción

Letra de Misas Negras
Quiero putas, rateros y drogadictos
La misa necesita sangre podrida
Bb|-5-4--5-4--5-4--5-4--7-7-77-5-5-5-7-7-7-5-5-5-|
C |-3-2--3-2--3-2--3-2--5-5-55-3-3-3-5-5-5-3-3-3-|
Elpoderquetengoledoygraciasalreyprendelasvelasytraeelmachete
Mi padre negro espera su sacrificio
Los animales no ayudan, búscame gente...Hechicero
sin pito, pobrecito, Tu alma no se escapa
Amarra ese buey como un pinche cerdo Amárralo y encuéralo en el piso
El machete filoso te parte el buche
Cabeza en mano de cuerpo gastado, un alma más para Satanas!!
Un sacrificio me da poder
STACATO:
Llena el balde con sesos, chingo cristianos pendejos
(1 vez sin voz)
Bb|-5-4--5-4--5-4--5-4--7-7-77-5-5-5-7-7-7-5-5-5-|
C |-3-2--3-2--3-2--3-2--5-5-55-3-3-3-5-5-5-3-3-3-|
Elpoderquetengoledoygraciasalreyprendelasvelasytraeelmachete
Mi padre negro espera su sacrificio
Los animales no ayudan, búscame gente
Un brujo sin pito, pobrecito
Tu alma no se escapa, brujo sin pito
Misas negras, misas negras,
misas negras, misas negras

Video de Misas Negras
[]




[Misas Negras chords][Misas Negras cifra]
© LaCuerda.net · aviso legal · privacidad · es · en · pt · contacto
DINAMICO