Acordes de Guitarra » A »Asesino » Padre Pedófilo (Tab)

Padre Pedófilo
Asesino

Letras, Acordes y Tabs para Guitarra, Bajo y Ukulele

  • Drop Bb
    
    Intro:
    C |---------------------------------------------------|
    G |---------------------------------------------------|
    D#|---------------------------------------------------|
    Bb|---------------------------------------------------| x4
    F |-3--5--3--5--0-8888877777-2--3--2--3--1-5555544444-|
    Bb|-3--5--3--5--0------------2--3--2--3--1------------|
    
    VERSO 1:
    C |-----------------------------------------|
    G |-----------------------------------------|
    D#|-----------------------------------------|
    Bb|-----------------------------------------|
    F |-0--0--0--2/3/2/3/2--0--0--0--0/1/0/1/0--|
    Bb|-0--0--0--2/3/2/3/2--0--0--0--0/1/0/1/0--|
         En mi pueblo       yo soy santo
         La pobre gente,    almas les salvo
         A los niños,       yo los amo
    
  • +
    ¡Colabora con nosotros!
    Envíanos tu versión de esta canción

Letra de Padre Pedófilo
VERSO 1:
F |-0--0--0--2/3/2/3/2--0--0--0--0/1/0/1/0--|
Bb|-0--0--0--2/3/2/3/2--0--0--0--0/1/0/1/0--|
En mi pueblo yo soy santo
La pobre gente, almas les salvo
A los niños, yo los amo
Les doy mi palo, palo sagrado
ESTRIBILLO:
| |
Bb|-0-0-0-0-2-2-2-2-3-3-3-3-5-5-5-5-|
1. Inocentes le gusta coger
2. Los del coro les hace cantar
| |
Bb|-0-0-0-0-2-2-2-2-3-3-3-3-5-3-5-3-|
Mecos y eucaristía comen
Con verga en mano Le vale madre
Bb|-2--3--2--3--|
porque eres el Padre...
Pedofilio Tu niño se cogió...Padre...
Pedofilio Su culo bendició
VERSO 2:
F |--0--0--0--2/3/2/3/2--0--0--0--0/1/0/1/0--|
Bb|--0--0--0--2/3/2/3/2--0--0--0--0/1/0/1/0--|
En la cabina de confieso
Los huevitos, les doy besos
Durante misa, bajo el altar
Mis niños chulos, mi verga maman
ESTRIBILLO:
| |
Bb|-0-0-0-0-2-2-2-2-3-3-3-3-5-5-5-5-|
1. Inocentes les gusta coger
2. Los del coro les hace cantar
| |
Bb|-0-0-0-0-2-2-2-2-3-3-3-3-5-3-5-3-|
Mecos y eucaristía comen
Con verga en boca...Le vale madre
Bb|-2--3--2--3--|
porque eres el Padre...
SAMPLE:
"...Y Jesús dijo: 'dejen a los niños venir a mí,
pa' que yo venga en sus niños.
El que no reciba mi bendición como niño,
nunca entrará al reino de Dios. Amén'..."
ESTRIBILLO:
| |
Bb|-0-0-0-0-2-2-2-2-3-3-3-3-5-5-5-5-|
1. Inocentes le gusta coger
2. Los del coro les hace cantar
| |
Bb|-0-0-0-0-2-2-2-2-3-3-3-3-5-3-5-3-|
Mecos y eucaristía comen
Con verga en culo...Le vale madre
Bb|-2--3--2--3--|
porque eres el Padre...
Pedofilio Tu niño se cogió...Padre...
Pedofilio Su culo bendició...Padre...
Pedofilio Tu niño se cogió...Padre...
Pedofilio Su culo bendició...Padre...
FINAL:
Pedofilo

Video de Padre Pedófilo
[]




[Padre Pedófilo chords][Padre Pedófilo cifra]
© LaCuerda.net · aviso legal · privacidad · es · en · pt · contacto
DINAMICO