Acordes de Guitarra » A »Ariel Camacho » Te Metiste (Tab)

Te Metiste
Ariel Camacho

Letras, Acordes y Tabs para Guitarra, Bajo y Ukulele

  • G                        G
    Como te pago todas las noches
                                G7    C
    Todas las veces que me has hecho tan feliz
    C
    Tu te entregas totalmente
    D                             G
    Me demuestras que eres solo para mi
    
    G
    Como te digo, como te explico
                           G7       C
    Que necesito estarte haciendo sonreir
     C                        D
    No puedo ver tu carita destrozada
     D
    Por el llanto y la tristeza
                     G           G7
    Porque me pone a sufrir...
    
    
  • Intro   C  D7  G  C    D7   G
    
             G
    Como te pago, todas las noches,
                                 G7    C
    todas las veces que me has hecho, tan feliz,
    
    tú te entregas totalmente,
          D7                      G
    me demuestras que eres solo, para mí.
    
             G
    Cómo te digo, cómo te explico,
                              G7    C
    que necesito estarte haciendo, sonreír,
                                   D7
    no puedo ver tu carita, destrozada
    
    por el llanto y la tristeza,
                   G            G7
    
  • (Capo 1º traste)  C F G
    
    C
    Cómo te pago todas las noches
                                           F
    Todas las veces que me has hecho tan feliz
                            G
    Tú te entregas totalmente
                                      C
    Me demuestras que eres solo para mí
    
    
    Cómo te digo, cómo te explico
                                       F
    Que necesito estarte haciendo sonreír
                               G
    No puedo ver tu carita destrozada
    
    Por el llanto y la tristeza
                         C
    
  • e---15--15--14--15--14--15--14--15--14--15--14--14---((14-14-14-14))--
    B---17--17--15--17--15--17--15--17--15--17--15--15---((15-15-15-15))--
    G---------------------------------------------------------------------
    D---------------------------------------------------------------------
    A---------------------------------------------------------------------
    E---------------------------------------------------------------------
    
    e---10--10--10--14--10--14--10--14--10--12--10--7---
    B---12--12--12--15--12--15--12--15--12--13--12--8---
    G---------------------------------------------------
    D---------------------------------------------------
    A---------------------------------------------------
    E---------------------------------------------------
    
    e---7-7-7--7/12--12--12--10--8---10-10/12--12-12-12-
    B---8-8-8--8/13--13--13--12--10--12-12/13--13-13-13-
    G---------------------------------------------------
    D---------------------------------------------------
    A---------------------------------------------------
    E---------------------------------------------------
    
  • E|--15--15--14--15--14--15--14--15--14--15--14--14----14--14----14--
    B|--17--17--15--17--15--17--15--17--15--17--15--15----15--15----15--
    G|------------------------------------------------------------------
    D|------------------------------------------------------------------
    A|------------------------------------------------------------------
    E|------------------------------------------------------------------
    
    
    E|----10--10--12--14--10--14--10--14--10-----12--10--7-------7-----7----
    B|----12--12--13--15--12--15--12--15--12-----13--12--8----8-----8-----8/
    G|--------------------------------------------------------------------
    D|-----------------------------------------------------------------
    A|-----------------------------------------------------------------
    E|-----------------------------------------------------------------
    
    
    E|--12--12--12--10--8---10--12----12--12--12----8---8---
    B|--13--13--13--12--10--12--13----13--13--13----10--10--
    G|--_--------------------------------------------------
    D|--_--------------------------------------------------
    
  • +
    ¡Colabora con nosotros!
    Envíanos tu versión de esta canción
  • Tutorial
    HD
    Como tocar - Te metiste de Ariel Camacho - Tutorial Guitarra (HD)
    5:42
  • Tutorial
    HD
    Como tocar TE METISTE de Ariel Camacho en guitarra acustica
    3:46

Letra de Te Metiste
Como te pago todas las noches
Todas las veces que me has hecho tan feliz
Tu te entregas totalmente
Me demuestras que eres solo para mi
Como te digo, como te explico
Que necesito estarte haciendo sonreir
No puedo ver tu carita destrozada
Por el llanto y la tristeza
Porque me pone a sufrir...
Te metiste completamente en mi vida
No hay un momento que no este
Pensando en ti
Y te metiste como el agua entre mis manos
Para quedarte siempre, siempre junto a mi
Y te metiste así como no queriendo
Me ilusionaste, me enamoraste y
Hoy soy solo para ti...
Como te digo...




[Te Metiste chords][Te Metiste cifra]
© LaCuerda.net · aviso legal · privacidad · es · en · pt · contacto