Acordes de Guitarra » A »Ariel Camacho » Toro Encartado (Tab)

Toro Encartado
Ariel Camacho

Letras, Acordes y Tabs para Guitarra, Bajo y Ukulele

  • LA                                                      MI7
    Ese que trae muchas ganas de darme pa bajo, que me de la cara
                                                               LA
    yo como quiera lo atiendo como quiera le entro, y no traigo manada
    LA                                                            MI7
    yo solito le hago al frente y atoro a la gente, que manda al contrario
                                                                     LA
    se me esta asiendo costumbre matar dos o tres, de los que matan diario
    LA                                                   MI7
    esta ya no lo recibo porque a domicilio, tiene una consulta
                                                                LA    LA7
    no quiero tantos pacientes porque mucha gente, se muere sin culpa
    
    LA7                   RE                       MI                   LA
    Bien dicen que en el negocio siempre son los socios, los que te traicionan
                          RE                   MI                   LA
    cuando sale muy buen queso que vale alto precio y la vaca es talona
                    RE                  MI                     LA
    pero soy toro encartado y se van a tragar, lo que me salga ahora.
    ...
    
  •                     D          E7                      A
    E|-0---0--0-0-2-4-5-2----2-2-2-0-0-------0---2---0---0-------------------
    B|-0p2-2--2-2-3-5-7-3----3-3-3-2-2-0-0-2---3---2---0---------------------
    G|-----------------------------------------------------2-2-1-------------
    D|-----------------------------------------------------------4-2-0-------
    A|-----------------------------------------------------------------4-2-0-
    E|-----------------------------------------------------------------------
    
    
    E|----------------------------------------------------------------
    B|----------------------------------------------------------------
    G|---0-2-4-2-4-2-4-2------------2----------------------------5-6--
    D|-4-----------------0-------------4-2------------------6-7-9-----
    A|------------------------------4-----4-0----------7-9------------
    E|----------------------------------------------------------------
    
    
    
    
    
    
  • +
    ¡Colabora con nosotros!
    Envíanos tu versión de esta canción

Letra de Toro Encartado
Ese que trae muchas ganas de darme pa bajo, que me de la cara
yo como quiera lo atiendo como quiera le entro, y no traigo manada
yo solito le hago al frente y atoro a la gente, que manda al contrario
se me esta asiendo costumbre matar dos o tres, de los que matan diario
esta ya no lo recibo porque a domicilio, tiene una consulta
no quiero tantos pacientes porque mucha gente, se muere sin culpa
Bien dicen que en el negocio siempre son los socios, los que te traicionan
cuando sale muy buen queso que vale alto precio y la vaca es talona
pero soy toro encartado y se van a tragar, lo que me salga ahora.
...
Se caen las torres gemelas se murió mi abuela, que eran importantes
que no te llene de plomo si nosotros somos, narcotraficantes
para mi remordimiento deveras que siento, darte un gran regalo
que color quieres la caja te gusta plateada, o del color dorado
no se te olvide en el viaje llevarle el mensaje, a tus ex pistoleros
que no les quede la duda que yo con las viudas, como me divierto
Ya con esta me despido me llego un pitido, que es como una bomba
Mexico, Estados Unidos, Panama, y Peru, Venezuela, y Colombia
estan directos conmigo Cuba, y Puerto Rico los tengo en la bolsa




[Toro Encartado chords][Toro Encartado cifra]
© LaCuerda.net · aviso legal · privacidad · es · en · pt · contacto