Tablatura para Guitarra de Ariel Camacho: Te Metiste
Conexión · Inscripción
Letras y Acordes
Pantalla Completa
Imprimir
Versión Texto
Añadir Favorito
Otras Versiones

Mostrar Diagramas
Desfile Automático
Manipular Acordes
Formato del Texto


Te Metiste(TAB)

Ariel Camacho

calidad:
acmc0084
AUTOR: Ariel Camacho  corregir
ALBUM: El Karma (2014)
Enviado por Joel
Hola amigos, les traigo la tablatura de esta bonita canción.
Esta suena exactamente como la canción, está en la escala de G/Sol.
Espero les guste.

REQUINTO:

/= deslizar o slide

e---15--15--14--15--14--15--14--15--14--15--14--14---((14-14-14-14))--
B---17--17--15--17--15--17--15--17--15--17--15--15---((15-15-15-15))--
G---------------------------------------------------------------------
D---------------------------------------------------------------------
A---------------------------------------------------------------------
E---------------------------------------------------------------------

e---10--10--10--14--10--14--10--14--10--12--10--7---
B---12--12--12--15--12--15--12--15--12--13--12--8---
G---------------------------------------------------
D---------------------------------------------------
A---------------------------------------------------
E---------------------------------------------------

e---7-7-7--7/12--12--12--10--8---10-10/12--12-12-12-
B---8-8-8--8/13--13--13--12--10--12-12/13--13-13-13-
G---------------------------------------------------
D---------------------------------------------------
A---------------------------------------------------
E---------------------------------------------------

e---8--8---14--12-12--10-10--8--8---7-7--5-5--3-3--2--5--8---7
B---10-10--15--13-13--12-12--10-10--8-8--7-7--5-5--3--7--10--8
G-------------------------------------------------------------
D-------------------------------------------------------------
A-------------------------------------------------------------
E-------------------------------------------------------------

e-----------------------------------------------------------------
B---8--7----------------------------------------------------------
G---------9--7--5--4----------------------4-4-4-4-4-4--7-7-7-7-7-7
D---------------------7--5-----5-5-5-5-5-5------------------------
A-----------------------------------------------------------------
E-----------------------------------------------------------------

e-------------------------------------3--
B---5-7/8--7-5-------------------7/8--3--
G--------------7-5-4-----4--4--7------4--
D--------------------5----------------5--
A----------------------------------------
E----------------------------------------


[][][][]

G Como te pago todas las noches
C Todas las veces que me has hecho tan feliz Tu te entregas totalmente
D G Me demuestras que eres solo para mi
G Como te digo, como te explico
C Que necesito estarte haciendo sonreir
D No puedo ver tu carita destrozada Por el llanto y la tristeza
G G7 Porque me pone a sufrir...
C D Te metiste completamente en mi vida
G No hay un momento que no este
G7 Pensando en ti
C D Y te metiste como el agua entre mis manos
G G7 Para quedarte siempre, siempre junto a mi
C D Y te metiste así como no queriendo Me ilusionaste, me enamoraste y
G Hoy soy solo para ti... Requinto -- Solo media canción Es casi igual que el intro, sólo cambia una parte en el adorno o escala: e---15--15--14--15--14--15--14--15--14--15--14--14---((14-14-14-14))-- B---17--17--15--17--15--17--15--17--15--17--15--15---((15-15-15-15))-- G--------------------------------------------------------------------- D--------------------------------------------------------------------- A--------------------------------------------------------------------- E--------------------------------------------------------------------- e---10--10--10--14--10--14--10--14--10--12--10--7--- B---12--12--12--15--12--15--12--15--12--13--12--8--- G--------------------------------------------------- D--------------------------------------------------- A--------------------------------------------------- E--------------------------------------------------- e---7-7-7--7/12--12--12--10--8---10-10/12--12-12-12- B---8-8-8--8/13--13--13--12--10--12-12/13--13-13-13- G--------------------------------------------------- D--------------------------------------------------- A--------------------------------------------------- E--------------------------------------------------- e---8--8---14--12-12--10-10--8--8---7-7--5-5--3-3--2--5--8---7 B---10-10--15--13-13--12-12--10-10--8-8--7-7--5-5--3--7--10--8 G------------------------------------------------------------- D------------------------------------------------------------- A------------------------------------------------------------- E------------------------------------------------------------- Lo que está entre paréntesis es rápido, con la pua hacia arriba y abajo, en la canción puede escucharse como suena. e------------------------------------------------------------ B---8--7-------------------------------8--7------------------ G---------9--7--5--4-------(7-9-11-12)-------9--7--5--4------ D---------------------7--5------------------------------7--5- A------------------------------------------------------------ E------------------------------------------------------------
G Como te digo, como te explico
C Que necesito estarte haciendo sonreir
D No puedo ver tu carita destrozada Por el llanto y la tristeza
G G7 Porque me pone a sufrir...
C D Te metiste completamente en mi vida
G No hay un momento que no este
G7 Pensando en ti
C D Y te metiste como el agua entre mis manos
G G7 Para quedarte siempre, siempre junto a mi
C D Y te metiste así como no queriendo Me ilusionaste, me enamoraste y
G Hoy soy solo para ti. FIN
Este fichero es trabajo propio de su transcriptor y representa su interpretación personal de la canción. El material contenido en esta página es
para exclusivo uso privado, por lo que se prohibe su reproducción o retransmisión, así como su uso para fines comerciales.

© LaCuerda.net · Aviso Legal · Privacidad