Acordes de Guitarra » A »Antonio Banderas » Canción del Mariachi (Tab)

Canción del Mariachi
Antonio Banderas

Letras, Acordes y Tabs para Guitarra, Bajo y Ukulele

  •                                    B                                Em
    Verse 1:
    Em                                           B7
    Soy un hombre muy honrado, Que me gusta lo mejor
                                                  Em
    A mujeres no me faltan, Ni al dinero, ni el amor.
    
    Verse 2:
    Em                                     B7
    ...En mi caballo, Por la sierra yo me voy
                                                   Em
    Las estrellas y la luna, Ellas me dicen donde voy.
    
    Chrous:
    Am           Em
    Ay, ay, ay, ay
    B7            Em
    Ay, ay, mi amor
    Am         Em
    Ay, mi morena
    
  • -----------------------------------
    -----------------------------------
    -----------------------------------
    -----------------------------------
    -----------------------------------
    ----7--8--5--7--3--5--2--3--0
    
    
    --------------------------------------------0------------
    -------------0----0-----0----1----0---------1-----0----------
    ----------0-----0-----0-----2-------0-------2-------0----2--
    ------2----------------------------------2------------2--4--
    ---2--------------------------------------------------------------
    ----------------------------------------------------------------
    
    
    -----------------------2---------------------------------------------
    ---------------------0----------0---1--0---------------------------
    --------2---2---2---------2---0---2--0----2-----2-----0----0--
    -----1--------------------------------------4-----------2-----
    
  • ------------3-5-2-3-0-------------------------
    
    1-------------------0-----------0--------------
    2----------0--0-----1--0--------1--0-----------
    3--------0------0---0-----0-----0-----0-----2--
    4-----2-------------2--------2--2--------2--4--
    5--2----------------2--2--------2--2-----------
    6----------------------------------------------
    
    1--------------------------------------------------------0--
    2----------------------------------------------------0------
    3------2-2-2-4-2-6-6-5---5-4---4-2---2-0---0-------0---0----
    4----4---4-4-4-4-7-7---7-----5-----4-----2-------2----------
    5--4-------------------------------------------2------------
    6--------------------------------------------0--------------
    
     primer solo:
    
    1---------7--7---7---7--8---7--7-------8---7--7
    2-------8-8--8---8---8--10--8--8-------10--8--8
    
  • e|---------7-7-7-7-8-7-7---8-7-7------|-------5-5-5-5-7-5-5-5-7-5-5----|
    B|-------8-8-8-8-8-8-8-8-8-8-8-8-8-10-|-------7-7-7-7-7-7-7-7-7-7-7----|
    G|-----9-----------------9-------9-11-|-----7----------------------7-8-|
    D|---9--------------------------------|---7------------------------8-9-|
    A|------------------------------------|--------------------------------|
    E|------------------------------------|--------------------------------|
    
    MIm                                          SI7
    Soy un hombre muy honrado, que me gusta lo mejor
                                                  MIm
    Las mujeres no me faltan ni el dinero ni el amor   e|--7/8--7-5--------|
                                                       B|-----------7-5-6--|
                                                       G|------------------|
    MIm                                            SI7
    Gineteando en mi caballo, por la sierra yo me voy
    
                                                             MIm
               Las estrellas y la luna, ellas me dicen donde voy
    e|--0-5-8-7-|-----0-5-8-7----|-----0-5-8-7------|---0-5-8-7----|
    B|----------|----------------|------------------|--------------|
    
  • esta rola esta enfocada en solo la guitarra principal,
    ya que los ritmos todos nos los sabemos.
    escuchen la rola original y echenle ganas,
    si se puede, esto es mi contribucion
    al site que me a dado mucho.
    
    ( esta rola va para mi bebito que viene en camino)
    
    corregida a mi original!!!!!
    
    
    e|------------------------------------------------------|
    B|------------------------------------------------------|
    G|------------------------------------------------------|
    D|------------------------------------------------------|
    A|-2-3-0-3----0-----------------------------------------|
    E|----------3-------2--3--0-----------------------------|
    
    
    e|-------------------0-0---------------------------------|
    B|-------0-0-1---0-0-0-0-0----------------------0----1---|
    G|-------0-0-2---0-0-0-0-0-0--2---------2-2-2---0--2-2---|
    D|-----2-------------------2--4------4--4-4-4------4-----|
    A|---2-----------------------------2---------------------|
    E|-0-----------------------------------------------------|
    
    e|----
  • +
    ¡Colabora con nosotros!
    Envíanos tu versión de esta canción
  • Tutorial
    HD
    Como tocar el Mariachi - La intro
    6:35
  • Tutorial
    HD
    Como tocar El Mariachi - Rasgueo
    5:05
  • Tutorial
    Como tocar la cancion "el pistolero "
    8:02
  • Tutorial
    HD
    Como tocar El Mariachi ANTONIO BANDERAS
    2:51

Letra de Canción del Mariachi
Verse 1:
Soy un hombre muy honrado, Que me gusta lo mejor
A mujeres no me faltan, Ni al dinero, ni el amor.
Verse 2:
...En mi caballo, Por la sierra yo me voy
Las estrellas y la luna, Ellas me dicen donde voy.
Chrous:
Ay, ay, ay, ay
Ay, ay, mi amor
Ay, mi morena
De mi corazon
(Repeate Intro.)
Verse 3:
Me gusta tocar guitarra, me gusta cantar el sol
Mariachi me acompana, quando canto my cancion.
Verse 4:
Me gustan tomar mis copas, aguardiente es lo mejor
Tanbien la tequilla blanca, con cu sal le da sabor.
Chrous:
Ay, ay, ay, ay
Ay, ay, mi amor
Ay, mi morena
De mi corazon
Verse 5:
Me gusta tocar guitarra, me gusta cantar el sol
Mariachi me acompana, quando canto my cancion.
Verse 6:
Me gustan tomar mis copas, aguardiente es lo mejor
Tanbien la tequilla blanca, con cu sal le da sabor.
Chrous:
Ay, ay, ay, ay
Ay, ay, mi amor
Ay, mi morena
De mi corazon
Ay, ay, ay, ay
Ay, ay, mi amor
Ay, mi morena
De mi corazon
English Version* Song Of The Mariachi
_______7_7_7_7_8_7_7_7_8_7_7_______|_____5_5_5_5_7_5_5_5_7_5_5______|
_____8_8_8_8_8_8_8_8_8_8_8_8_8_10__|_____7_7_7_7_7_7_7_7_7_7_7_7_8__|
___9_________________________9_11__|___7_______________________8_9__|
_9_________________________________|_7______________________________|
___________________________________|________________________________|
___________________________________|________________________________|
Verse 1:
I am an honored man, and I like what is best,
For I lack no woman, nor the money or the love.
Verse 2:
On my horse I ride, through the mountains I go,
And the stars and the moon, they tell me where to go.
Chrous:
Ay, ay, ay, ay
Ay, ay, my love
Ay, my brunette
Of my heart.
(Repeate Intro.)
Verse 3:
I like to play guitar, I like to sing the sun,
Mariachis are my companions, when I sing my song.
Verse 4:
I like to take my drinks, brandy is the best,
And also the white tequilla, with the salt that adds the flavor.
Chrous:
Ay, ay, ay, ay
Ay, ay, my love
Ay, my brunette
Of my heart.
Verse 5:
I like to play guitar, I like to sing the sun,
Mariachis are my companions, when I sing my song.
Verse 6:
I like to take my drinks, brandy is the best,
And also the white tequilla, with the salt that adds the flavor.
Chrous:
Ay, ay, ay, ay
Ay, ay, my love
Ay, my brunette
Of my heart.
Ay, ay, ay, ay
Ay, ay, my love
Ay, my brunette
Of my heart.
********************
soy ramiro un profesor de musica muy amigo mio me dijo que
no es B es B7
pruevenlo les saldra mejor dudas a mi msn
guitarr_tab@hotmail.com

Video de Canción del Mariachi
[]




[Canción del Mariachi chords][Canción del Mariachi cifra]
© LaCuerda.net · aviso legal · privacidad · es · en · pt · contacto