Acordes de Guitarra » A »Antonio Banderas » La balada del pistolero (Tab)

La balada del pistolero
Antonio Banderas

Letras, Acordes y Tabs para Guitarra, Bajo y Ukulele

  • e|------------------------------------------------------|
    B|------------------------------------------------------|
    G|------------------------------------------------------|
    D|------------------------------------------------------|
    A|-2-3-0-2----0-----------------------------------------|
    E|----------3-------2--3--0-----------------------------|
    
    
    e|-------------------0-0---------------------------------|
    B|-------0-0-1---0-0-0-0-0----------------------0----1---|
    G|-------0-0-2---0-0-0-0-0-0--2---------2-2-2---0--2-2---|
    D|-----2-------------------2--4------4--4-4-4------4-----|
    A|---2-----------------------------2---------------------|
    E|-0-----------------------------------------------------|
    
    e|----------------------------------------0--|
    B|--1-0---0-------------------------------0--|
    G|------0---2-----2--0----0---------------0--|
    D|------------4--------2-----4----1---4---2--|
    A|----------------------------------------2--|
    
  • Em = MIm
    B7 = SI7
    Am = LAm
    
    INTRO:
    
    e|---------7-7-7-7-8-7-7---8-7-7------|-------5-5-5-5-7-5-5-5h7-5-5----|
    B|-------8-8-8-8-8-8-8-8-8-8-8-8-8-10-|-------7-7-7-7-7-7-7-7-7-7-7----|
    G|-----9-----------------9-------9-11-|-----7----------------------7-8-|
    D|---9--------------------------------|---7------------------------8-9-|
    A|------------------------------------|--------------------------------|
    E|------------------------------------|--------------------------------|
    
    Em                                          B7
    Soy un hombre muy honrado, que me gusta lo mejor
                                                  Em
    Las mujeres no me faltan ni el dinero ni el amor   e|--7h8--7-5--------|
                                                       B|-----------7-5-6--|
                                                       G|------------------|
    Em                                            B7
    
  • +
    ¡Colabora con nosotros!
    Envíanos tu versión de esta canción
  • Tutorial
    HD
    Como tocar El Mariachi ANTONIO BANDERAS
    11:58
  • Tutorial
    La Malagueña - (Once Upon A Time In México theme)
    - Mariano Franco
    2:56

Letra de La balada del pistolero
Soy un hombre muy honrado, que me gusta lo mejor
Gineteando en mi caballo, por la sierra yo me voy
Las estrellas y la luna, ellas me dicen donde voy
Ay , ay , ay , ay
Ay mi morena de mi corazón
Me gusta tocar guitarra, me gusta cantar al sol PUNTEADOS CON ARRASTRE(h)
Mi mariachi me acompaña, cuando canto mi cancion
Tambien el tequila blanca, con su sal le da sabor
Ay , ay , ay , ay
Ay mi morena de mi corazón
(CON PUENTE)
-(ENTRA LA SEGUNDA GUITARRA CON EL RRASGUEO)
*
SILENCIO:
Mi mariachi me acompaña, cuando canto mi cancion
Me gusta tomar mis copas, aguardiente es lo mejor
Tambien el tequila blanca, con su sal le da sabor..
Ay, ay, ay, ay
Ay, ay, mi amor
Ay mi morena de mi corazón
Ay, ay, ay, ay
Ay, ay, mi amor
Ay mi morena de mi corazón....
Bueno eso fue todo. Si tienen dudas o preguntas sobre el tema,
agreguen al Messenger, casi siempre estoy en línea.
Bye y suerte con la canción.

Video de La balada del pistolero
[]




[La balada del pistolero chords][La balada del pistolero cifra]
© LaCuerda.net · aviso legal · privacidad · es · en · pt · contacto