Tablatura de Antonio Banderas: Canción del Mariachi
Antonio Banderas  corregir
desconocido
Introducción:                 

1---------------------------------------------
2---------------------------------------------
3---------------------------------------------
4---------------------------------------------
5---2-3-0-2-----------------------------------
------------3-5-2-3-0-------------------------

1-------------------0-----------0--------------
2----------0--0-----1--0--------1--0-----------
3--------0------0---0-----0-----0-----0-----2--
4-----2-------------2--------2--2--------2--4--
5--2----------------2--2--------2--2-----------
6----------------------------------------------

1--------------------------------------------------------0--
2----------------------------------------------------0------
3------2-2-2-4-2-6-6-5---5-4---4-2---2-0---0-------0---0----
4----4---4-4-4-4-7-7---7-----5-----4-----2-------2----------
5--4-------------------------------------------2------------
6--------------------------------------------0--------------

 primer solo:

1---------7--7---7---7--8---7--7-------8---7--7
2-------8-8--8---8---8--10--8--8-------10--8--8
3----9---------------------------9-------------
4-9--------------------------------------------

1-----5-----5-5-5-5-5-7-5-5---7-5-5----3-------
2-----7---7---7-7-7-7-8-7-7---8-7-7----5-------
3-9-----8-------------------8-------7----------
4-----------------------------------8----------

Em Soy un hombre muy honrado
B7 Que le gusta lo mejor 1------------------------- 2---------7--------------- 3-----9------------------- 4--9----------------------
B7 Las mujeres no me faltan
Em Ni el dinero ni el amor 1----9--7---------------------------------- 2----------10--8--7------------------------ 3----------------------9-------------------
Em Jineteando en mi caballo
B7 Por lo sierra yo me voy 1----------8-7------------8-7--------------8-7- 2-77--10--------77--10-----------77--10-------- 3----------------------------------------------
E7 Las estrellas y la luna
Em Ellas me dicen donde voy
Am Em Hay, hay, hay, hay, hay 1-10-7-10-8-----8-7---7-----------------------------------7 2-----------10------8--10-7-10-8---8-7---7-------7--8-8---- 3--------------------------------9-----8---9-8-9----------- 4----------------------------------------------------------
B7 Em Hay, hay amor
Am Em Hay mi morena 1--10-7-10-8-----8-7---7----------------------- 2------------10------8---10-7-10-8---8-7---7--- 3----------------------------------9-----8---9- 4---------------------------------------------- Se repite el intro: 1---------7--7---7---7--8---7--7-------8---7--7 2-------8-8--8---8---8--10--8--8-------10--8--8 3----9---------------------------9------------- 4-9-------------------------------------------- 1-----5-----5-5-5-5-5-7-5-5---7-5-5----3------- 2-----7---7---7-7-7-7-8-7-7---8-7-7----5------- 3-9-----8-------------------8-------7---------- 4-----------------------------------8----------
Em Me gusta tocar guitarra
B7 Me gusta cantar el son 1-------------------7-7--------------------------------------- 2-------------------7-7--------------------------------------- 3-------------------8-8---------------------------------------
B7 El mariachi me acompaña 1-7------7------------7-7------------------------------------ 2--7------7------------7-7------------------------------------ 3--8------8------------8-8------------------------------------ Cuando canto mi canción 1------------------------7-7 9-7-----7-----9-7-----------7----------------------- 2------------------------8-------9----------------10-8-7------10-8-7----7-------- 3------------------------9---------9--------------------------------------9---
Em Me gusta tomar mis copas
B7 Agua ardiente es lo mejor También el tequila blanco
Em Con su sal le da sabor hay hay hay hay hay hay amor hay mi morena de mi corazon 1--10-7-10-8-----8-7---7----------------------- 2------------10------8---10-7-10-8---8-7---7--- 3----------------------------------9-----8---9- 4---------------------------------------------- el solo ahora: 1-7----7--12--7----7---7--11--7-----7----7--11--7----7----7--12-7-----7---7-12-7-----7--7--11-7------7----11----7--- 2---10-----------10--0------------10---0------------10--0---------10----0---------10--0---------10-----0-----10----- 3------------------------------------------------------------------------------------------------------------------- 1---12-----7---12---7-----12----------10----10-8-----8-7---7-5---5-3---3--2---2-0---0------------------------------- 2-0-----10---0----------0---------12------12-----10------8-----7-----5-----3------0---3-0-1-0----------------------- 3------------------------------12----------------------------------------------------------------------------------- 4------------------------------------------------------------------------------------------------------------------- 1----------------------------------------------------------------------------------------7--5--3--2--0-------------- 2--0---0-1-0-----------------------------0-0-4-6-7----0-0--5-7-8---0-0-4-6-7--0------------------------------------- 3----2--------2-0---2-0------------------------------------------------------------------8--5--4--2--0-------------- 4------------------4------4-2-0------------------------------------------------------------------------------------- 5---------------------------------2--------------------------------------------------------------------------------- lo demás es acapela y el la parte que dice: me gusta tocar guitarra me gusta cantar el son 1-7v8v7------------------------- 2-------10v7-------------------- 3------------9------------------ el mariachi me acompaña cuando canto mi canción y a qui entra otra vez el ritmo
Em Me gusta tomar mis copas
B7 Agua ardiente es lo mejor 1---------------7-8-7------------------ 2--7-10-7-10--------------------------- 3--------------------------------------
Este fichero es trabajo propio de su transcriptor y representa su interpretación personal de la canción. El material contenido en esta página es
para exclusivo uso privado, por lo que se prohibe su reproducción o retransmisión, así como su uso para fines comerciales.
© LaCuerda.net · aviso legal · privacidad · contacto